Guitaretab - guitar tabs
Song name
# A B C D E F G H I J K L M N O P Q R S T U V W X Y Z

Senses Fail - Bonecrusher tab

Song: Bonecrusher
Album: Still Searching
Artist: Senses Fail
Tabbed By: Chelsea

Tuning: DADGBE

This is a pretty cool new song by these guys. You'll have to listen to it for strumming 
such 'cause there are a lot of picky details that are easy to hear, but hard to tab out. 
that said, enjoy. =)

*****Guitar One*****

Intro:
|-0-0-0-0-0-0-0-0-0-0-0-0-0-0-0-0-|
|-0-0-0-0-3-3-3-3-5-5-5-5-7-7-7-7~|
|---------------------------------|
|---------------------------------|
|---------------------------------|
|---------------------------------|

|-0-0-0-0-0-0-0-0-0-0-0-0-0-0-0-0-0-0-0-0-0-0-0-0-0-0-0-0-|
|-0-0-0-0-3-3-3-3-5-5-5-5-7-7-7-7-5-5-5-5-5-5-5-5-3-3-3-3-|
|---------------------------------------------------------|
|---------------------------------------------------------|
|---------------------------------------------------------|
|---------------------------------------------------------|

Verse:
|--------------------------------------------------------------------|
|--------------------------------------------------------------------|
|11-11-11-11-11-11-11--7-7-7-7-7-7-7---------------------------------|
|-x--x-x--x--x--x--x--x-x-x-x-x-x-x--5---5---5---5-5--0---0---0-0-0-|
|-9-9--9--9-9-9--9--5-5-5-5-5-5-5--5---5---5---5-5--0---0---0-0-0-|
|-------------------------------------5---5---5---5-5--0---0---0-0-0-|
PM.  .  .  .  .  .  .    . . . . . .                               |
                                                                   |x2
|--------------------------------------------------------------------|
|--------------------------------------------------------------------|
|-7-7-7-7\6-7-7-7-7\6-9-9-9-9-9-9-11-11-11-11-11-11-11-11------------|
|-x-x-x-x-xx-x-x-x-x-x-x-x-x-x-x-x--x--x--x--x--x--x--x------------|
|-5-5-5-5\4-5-5-5-5\4-7-7-7-7-7-7-9--9-9-9-9-9-9--9------------|
|--------------------------------------------------------------------|

Chorus: He does a variation of this. Just play around with it.
|--------------------------------------------------------------------|
|--------------------------------------------------------------------|
|-4-4-4-4/7-7-7-7/9-9-9-9/11-11-11-11-x-11-11-11-11-9-9-9-9-7-7-7-7|
|-x-x-x-xx-x-x-x-x-x-x-x--x-x-x-x-x-x--x--x--x-x-x-x-x-x-x-x-x|
|-2-2-2-2/5-5-5-5/7-7-7-7/-9-9--9--9--x--9--9--9--9--7-7-7-7-5-5-5-5|
|--------------------------------------------------------------------|

|--------------------------------------|-----------------------------|
|--------------------------------------|-15-15-15--14-14-14-14-------|
|-9-9-9-9-9-9-9-9-9/11-7-7-7-7-7-7-7-7|--x--x--x---x--x--x--x-------|
|-x-x-x-x-x-x-x-x--x--x-x-x-x-x-x-x-x-x|-11-11-11--10-10-10-10-------|
|-7-7-7-7-7-7-7-7-7/-9-5-5-5-5-5-5-5-5|-----------------------------|
|--------------------------------------|-----------------------------|

Verse
Then add...
|-----------|x2
|-----------|
|-7--11--16-|
|-x---x---x-|
|-5---9--14-|
|-----------|

Chorus
Breakdown:

Listen for strumming...
|-----------------------------------|
|-----------------------------------|
|-7--9-11--12-12--11-11--14--12-14-|
|-x--x--x---x--x---x--x---x---x---x-|
|-5--7--9--14-14-13-13--12--14-16-|
|-----------------------------------|
[ Tab from: http://www.guitaretab.com/s/senses-fail/79514.html ]
|---------------------------------------------------|
|---------------------------------------------------|
|---------------------------------------------------|
|-9-9-9--0-0--5-5-5--0-0--7-7-7--0-0--9-9-----9-7-9-|
|-9-9-9--0-0--5-5-5--0-0--7-7-7--0-0--9-9-9-9-9-7-9-|
|-9-9-9--0-0--5-5-5--0-0--7-7-7--0-0--9-9-9-9-9-7-9-|
					  PM.
|-----------------------------------------------|
|-----------------------------------------------|
|-------11---------11---------12--11-11----11-9-|
|-9-9-9--x---5-5-5--x---7-7-7-x---x--x-----x-x-|
|-9-9-9--9---5-5-5--9---7-7-7-10---9--9-9-9-9-7-|
|-9-9-9------5-5-5------7-7-7-----------9-9-----|
                                        PM.

|--------------------------------------------------------------------|
|--------------------------------------------------------------------|
|-4-4-4-4/7-7-7-7/9-9-9-9/11-11-11-11-x-6-6-6-6/7-7-7-7-12-12-121111|
|-x-x-x-xx-x-x-x-x-x-x-x--x-x-x-x-xx-x-x-xx-x-x-x--x--x--x-x-x|
|-2-2-2-2/5-5-5-5/7-7-7-7/-9-9--9--9--x-4-4-4-4/5-5-5-5-10-10-10-9-9|
|--------------------------------------------------------------------|

Intro

|---------|
|---------|
|-7--7-7\|
|-x--x--x-|
|-5--5-5\|
|---------|


*****Guitar Two*****

Intro:
|--------------------------------------------------------------------|
|--------------------------------------------------------------------|
|--------------------------------------------------------------------|
|-9-9-9--0-0--5-5-5--0-0--7-7-7--0-0--9-9-----9-7-9------------------|
|-9-9-9--0-0--5-5-5--0-0--7-7-7--0-0--9-9-9-9-9-7-9------------------|
|-9-9-9--0-0--5-5-5--0-0--7-7-7--0-0--9-9-9-9-9-7-9------------------|
					  PM.
Verse:
|--------------------------------------------------------------|
|--------------------------------------------------------------|
|--------------------------------------------------------------|
|-9--------------0--------------5---5---5---5-5--0---0---0-0-0-|
|-9-9-9-9-9-9-9--0-0-0-0-0-0-0--5---5---5---5-5--0---0---0-0-0-|
|-9-9-9-9-9-9-9--0-0-0-0-0-0-0--5---5---5---5-5--0---0---0-0-0-|
PM  . . . . . .    . . . . . .                  |
                                                |x2
|-----------------------------------------------|
|-----------------------------------------------|
|-----------------------------------------------|
|-9-9-9--0-0--5-5-5--0-0--7-7-7-7-7-7-7-7-------|
|-9-9-9--0-0--5-5-5--0-0--7-7-7-7-7-7-7-7-------|
|-9-9-9--0-0--5-5-5--0-0--7-7-7-7-7-7-7-7-------|


Chorus:
|-----------------------------------------------------------------|
|-----------------------------------------------------------------|
|-----------------------------------------------------------------|
|-9-9-9-9-9-9-9-9-0-0-0-0-0-0-0-0-7-7-7-7-7-7-7-7-5-5-5-5-5-5-5-5-|
|-9-9-9-9-9-9-9-9-0-0-0-0-0-0-0-0-7-7-7-7-7-7-7-7-5-5-5-5-5-5-5-5-|
|-9-9-9-9-9-9-9-9-0-0-0-0-0-0-0-0-7-7-7-7-7-7-7-7-5-5-5-5-5-5-5-5-|

Verse
Then add...
|-----------|x2
|-----------|
|-7--11--16-|
|-x---x---x-|
|-5---9--14-|
|-----------|

Chorus

Breakdown: Listen for strumming
|----------------------------|
|----------------------------|
|-4--6--7--9-11--12-12-12-12-|
|-x--x--x--x--x---x-x-x--x-|
|-2--4--5--7--9--10-10-10-10-|
|----------------------------|

Intro

|-----------------------------------------------|
|-----------------------------------------------|
|--------7----------7----------9---9--9-----9-7-|
|-9-9-9--x---5-5-5--x---7-7-7-x---x--x-----x-x-|
|-9-9-9--5---5-5-5--5---7-7-7--7---7--7-9-9-7-5-|
|-9-9-9------5-5-5------7-7-7-----------9-9-----|
				        PM.
Intro

|-------|
|-------|
|-------|
|-9-9-9||
|-9-9-9\|
|-9-99\|
Related for Bonecrusher tab