Song name
# A B C D E F G H I J K L M N O P Q R S T U V W X Y Z

Senses Fail - Sick Or Sane Fifty For A Twenty tab

Help us improve GuitareTab! Take a short survey!
----------------------------------------------------------------------------
             Sick or Sane (Fifty for a Twenty)-Senses Fail
----------------------------------------------------------------------------
Tabbed by:lost in 3 words	


Tuning:drop d (Dadgbe)
     
     |chorus:
e|---|---------------------------------------------------------------------|
B|---|---------------------------------------------------------------------|
G|---|10-10-10-9-12-7-7-7-9-9-9---10-10-10-9-12-7-7-7-9-9-9----------------|
D|---|-x--x--x-x--x-x-x-x-x-x-x----x--x--x-x--x-x-x-x-x-x-x----------------|
A|---|-8--8--8-7-10-5-5-5-7-7-7----8--8--8-7-10-5-5-5-7-7-7----------------|
D|12/|---------------------------------------------------------------------|

e|-------------------------------------------------------------------------|
B|-------------------------------------------------------------------------|
G|-14-14-14-12-15-10-10-10-12-12-10-10-10-10-9-12-7-7-7-9-9-9--------------|
D|--x--x--x--x--x--x--x--x--x--x--x--x--x--x-x--x-x-x-x-x-x-x--------------|
A|-12-12-12-10-13--8--8--8-10-10--8--8--8--8-7-10-5-5-5-7-7-7--------------|
D|-------------------------------------------------------------------------|

       verse:
e|-------------------------------------------------------------------------|
B|-------------------------------------------------------------------------|
G|10/----10-9-10-----------------------------------------------------------|
D|-x------x-x--x-0-----8-8-------10-10-------------------------------------|
A|-8/-----8-8--8-0-8-8-8-8-10-10-10-10-------------------------------------|
D|---------------0-8-8-8-8-10-10-10-10------------------------------------- 
PM                 . .      .  .         
e|-------------------------------------------------------------------------|
B|-------------------------------------------------------------------------|
G|---10-9-10---------------------------------------------------------------|
D|-0--x-x--x-0-------------10-3--------------------------------------------|
A|-0--8-8--8-0-0-0-0-8-8-8-10-3--------------------------------------------|
D|-0---------0-0-0-0-8-8-8-10-3--------------------------------------------|
 PM            . . . . . .                 
e|-------------------------------------------------------------------------|
B|-------------------------------------------------------------------------|
G|-----10-----10-----10----------------------------------------------------|
D|------x------x------x----------------------------------------------------|
A|-0-0--8-0-0--8-0-0--8---8-8-8-10-10-10-----------------------------------|
D|-0-0----0-0----0-0------8-8-8-10-10-10-----------------------------------|
PM . .    . .    . .      . . .  .  .  .                
e|-------------------------------------------------------------------------|
B|-------------------------------------------------------------------------|
G|-----10-----10-----------------------------------------------------------|
D|------x------x-----------------------------------------------------------|
A|-0-0--8-0-0--8-8-8-8-8-8-8-10-10-10-10-10-10-----------------------------|
D|-0-0----0-0----8-8-8-8-8-8-10-10-10-10-10-10-----------------------------|
PM . .    . .    . . . . . .  .  .  .  .  .  .                   
e|-------------------------------------------------------------------------|
B|-------------------------------------------------------------------------|
G|-----10-----10-----10----------------------------------------------------|
D|------x------x------x----------------------------------------------------|
A|-0-0--8-0-0--8-0-0--8---8-8-8-10-10-10-----------------------------------|
D|-0-0----0-0----0-0------8-8-8-10-10-10-----------------------------------|
 PM. .    . .    . .      . . .  .  .  .        
e|-------------------------------------------------------------------------|
B|-------------------------------------------------------------------------|
G|-----10-----10-----------------------------------------------------------|
D|------x------x-8-8-8-8-8-8-10-3------------------------------------------|
A|-0-0--8-0-0--8-8-8-8-8-8-8-10-3------------------------------------------|
D|-0-0----0-0----8-8-8-8-8-8-10-3------------------------------------------|
 PM. .    . .    . . . . . .
            play the chorus and verse twice then play the chorus again 
                              and then play this>
 
e|----------------13----------17-17-15-14/15-------------------------------|
B|-15-13----13-15----15-13-15----------------15-13-15-15-13----------------|
G|-------14-------------------------------------------------14-------------|
D|-------------------------------------------------------------------------|
A|-------------------------------------------------------------------------|
D|-------------------------------------------------------------------------|

e|-------------------------------------------------------------------------|
B|---------------------------------------------13-15-15-15-13---13---------|
G|-12----12------------------------------12-------------------14---14-12-14|
D|----15----11-12------12----12-15-12-15----15-----------------------------|
A|---------------12-15----15-----------------------------------------------|
D|-------------------------------------------------------------------------|

e|----------13-15-17-15-13-15-17-18-17-15-pb15-13-pb13-10-10-10b-----------|
B|---------------------------------------------------------------10-10-----|
G|-12----------------------------------------------------------------------|
D|----12-12----------------------------------------------------------------|
A|-------------------------------------------------------------------------|
D|-------------------------------------------------------------------------|

e|-------------------------------------------|-----------------------------|
B|-10b-8-8-10b-------------------------------|-----------------------------|
G|-------------10-10-9-9---------------------|-----------------------------|
D|-----------------------12/0-12/0-12/0-12/0-|-----------------------------|
A|-----------------------12/0-12/0-12/0-12/0-|-----------------------------|
D|-----------------------12/0-12/0-12/0-12/0-|-0-0-3-0-3-0-0-3- (x alot)---|

e|-------------------------------------------------------------------------|
B|-------------------------------------------------------------------------|
G|----10-10-10-9-12-7-7-7-9-9-9---10-10-10-9-12-7-7-7-9-9-9----------------|
D|-----x--x--x-x--x-x-x-x-x-x-x----x--x--x-x--x-x-x-x-x-x-x----------------|
A|-----8--8--8-7-10-5-5-5-7-7-7----8--8--8-7-10-5-5-5-7-7-7----------------|
D|-------------------------------------------------------------------------|

e|-------------------------------------------------------------------------|
B|-------------------------------------------------------------------------|
G|-14-14-14-12-15-10-10-10-12-12-10-10-10-10-9-12-7-7-7-9-9-9--------------|
D|--x--x--x--x--x--x--x--x--x--x--x--x--x--x-x--x-x-x-x-x-x-x--------------|
A|-12-12-12-10-13--8--8--8-10-10--8--8--8--8-7-10-5-5-5-7-7-7--------------|
D|-------------------------------------------------------------------------|

e|-pb12-10-10-pb10------------------|-pb12-10-10-pb12-10-13-13-15-10~------|
B|-----------------13-13/14-10------|--------------------------------------|
G|---------------------------- (X3) |--------------------------------------|
D|----------------------------------|--------------------------------------|
A|----------------------------------|--------------------------------------|
D|----------------------------------|--------------------------------------|
Related for Sick Or Sane Fifty For A Twenty tab