Song name
# A B C D E F G H I J K L M N O P Q R S T U V W X Y Z

Senses Fail - Stretch Your Legs To Coffin Length tab

Look at the other guys tab for this to get the intro and bridge and second guitar parts 
it is almost right. This is just fixing the verse and chorus so it is 100% right guaranteed.

Tuning:Drop D


e|-----------------------------------------------------------------------------------|
B|-----------------------------------------------------------------------------------|
G|-----------------------666/77------------9999\77--------6666/77--------------------|
D|--22222222------55-0---xxxxxx-----99-0---xxxxxxx--99-5--xxxxxxx--5-4-0-0000--------|
A|--22222222------55-0---444/55-----99-0---7777\55--99-5--4444/55--5-4-0-0000--------|
D|--22222222------55-0--------------99-0------------99-5-----------5-4-0-0000--------|

e|---------------------------14br--------------------------------------------------|
B|--------------------------------15-----15----------------------------------------|
G|-------14----11--12-11----------------------14----12-11----11br------------------|
D|----12----12---12------12-----------12---12----12-------12-----14-12-------------|
A|---------------------------------------------------------------------------------|
D|---------------------------------------------------------------------------------|

e|-------------------14br--------12----12----14--------------------------------------|
B|------------------------15--15----15----15-----------------------------------------|
G|------14--11--12-11----------------------------------------------------------------|
D|---12---12--12---------------------------------------------------------------------|
A|-----------------------------------------------------------------------------------|
D|-----------------------------------------------------------------------------------|
Tap to rate this tab
 
# A B C D E F G H I J K L M N O P Q R S T U V W X Y Z