Song name
# A B C D E F G H I J K L M N O P Q R S T U V W X Y Z

Senses Fail - To All The Crowded Rooms tab

Artist: Senses Fail
Song: To All the Crowded Rooms
Tabbed by Evan Nouis

I'm surprised that no one has tabbed this song with great success.
This is the way I play it on guitar.
Lawlz.

Drop D Tuning

Intro

Guitar 1

e[-------------------------------------------------------------------]
b[-------------------------------------------------------------------]
g[-11-11-11-9-9-12--11-11-11-9-9-12--11-11-11-9-9-7--11-11-11-9-9-7--]
d[-x--x--x--x-x-x---x--x--x--x-x-x---x--x--x--x-x-x--x--x--x--x-x-x--]
a[-9--9--9--7-7-10--9--9--9--7-7-10--9--9--9--7-7-5--9--9--9--7-7-5--]
d[-0--0--0--0-0-0---0--0--0--0-0-0---0--0--0--0-0-0--0--0--0--0-0-0--]

Guitar 2

e[-------------------------------------------------------------------]
b[-------------------------------------------------------------------]
g[------------------------------------11-11-11-11-11--7--7--7--7--7--]
d[------------------------------------9--9--9--9--9---5--5--5--5--5--]
a[------------------------------------9--9--9--9--9---5--5--5--5--5--]
d[------------------------------------9--9--9--9--9---5--5--5--5--5--]

Guitar 1

e[-------------------------------------------------------------------]
b[-------------------------------------------------------------------]
g[-11-11-11-9-9-12--11-11-11-9-9-12--11-11-11-9-9-7--11-11-11-9-9-7--]
d[-x--x--x--x-x-x---x--x--x--x-x-x---x--x--x--x-x-x--x--x--x--x-x-x--]
a[-9--9--9--7-7-10--9--9--9--7-7-10--9--9--9--7-7-5--9--9--9--7-7-5--]
d[-0--0--0--0-0-0---0--0--0--0-0-0---0--0--0--0-0-0--0--0--0--0-0-0--]

Guitar 2

e[-------------------------------------------------------------------]
b[-------------------------------------------------------------------]
g[-7--7-7-7---------7--7-7-7----------11-11-11-11-11--7--7--7--7--7--]
d[-0--0-0-0---------0--0-0-0----------9--9--9--9--9---5--5--5--5--5--]
a[-0--0-0-0---------0--0-0-0----------9--9--9--9--9---5--5--5--5--5--]
d[-0--0-0-0---------0--0-0-0----------9--9--9--9--9---5--5--5--5--5--]

Verse

Both guitars

e[-------------------------------------------------------------------]
b[-------------------------------------------------------------------]
g[-777--777--777--777-----666--666--666----6-4-----------------------]
d[-000--000--000--000-----777--777--777----7-7-9---------------------]
a[-000--000--000--00000---444--444--44444--4-4-7---------------------]
d[-000--000--000--00000---444--444--44444--4-4-7---------------------]
                     ..                .. 


e[-------------------------------------------------------------------]
b[-------------------------------------------------------------------]
g[-777--777--777--777-----666--666--666----6/4-----------------------]
d[-000--000--000--000-----777--777--777----7--/9-9-------------------]
a[-000--000--000--00000---444--444--44444--4--/7-7-------------------]
d[-000--000--000--00000---444--444--44444--4--/7-7-------------------]
                     ..                .. 


In the background, during the second part of the verse, I noticed some
tremolo picking. Right here, young lads, would be good place to improvise. 
I came up with a little somethin' somethin' for this part because I couldn't
really hear the notes. If anyone figures it out, drop a message or something of that sort. Lawlz. 

e[-------------------------------------------------------------------]
b[-------------------------------------------------------------------]
g[-7777-11-11-77-12-12-77-11-11-77-9-9-77-11-11-77-------------------]
d[-------------------------------------------------------------------]
a[-------------------------------------------------------------------]
d[-------------------------------------------------------------------]

e[-------------------------------------------------------------------]
b[-------------------------------------------------------------------]
g[-7777-11-11-77-12-12-77-11-11-77-9-9-77-11-11-77-------------------]
d[-------------------------------------------------------------------]
a[-------------------------------------------------------------------]
d[-------------------------------------------------------------------]

e[-------------------------------------------------------------------]
b[-------------------------------------------------------------------]
g[-6666-7-7-66-99-66-7-7-66-7-7-66-9-9-66----------------------------]
d[-------------------------------------------------------------------]
a[-------------------------------------------------------------------]
d[-------------------------------------------------------------------]

e[-------------------------------------------------------------------]
b[-------------------------------------------------------------------]
g[-6666-7-7-66-99-66-7-7-66-7-7-66-9-9-66----------------------------]
d[-------------------------------------------------------------------]
a[-------------------------------------------------------------------]
d[-------------------------------------------------------------------]

Pre-chorus: "We will capture you..."

e[-------------------------------------------------------------------]
b[-------------------------------------------------------------------]
g[----------------7---11-11-11-11-11-7----------7--------------------]
d[-11h12-12-12-11-5---9--9--9--9--9--5--222/4-4-5--------------------]
a[-9-----9--9--9--5---9--9--9--9--9--5--222/4-4-5--------------------]
d[-9-----9--9--9--5---9--9--9--9--9--5--222/4-4-5--------------------]

Chorus

Guitar 1

e[-------------------------------------------------------------------]
b[-------------------------------------------------------------------]
g[-11-11-11-9-9-12--11-11-11-9-9-12--11-11-11-9-9-7--11-11-11-9-9-7--]
d[-x--x--x--x-x-x---x--x--x--x-x-x---x--x--x--x-x-x--x--x--x--x-x-x--]
a[-9--9--9--7-7-10--9--9--9--7-7-10--9--9--9--7-7-5--9--9--9--7-7-5--]
d[-0--0--0--0-0-0---0--0--0--0-0-0---0--0--0--0-0-0--0--0--0--0-0-0--]

e[-------------------------------------------------------------------]
b[-------------------------------------------------------------------]
g[-11-11-11-9-9-12--11-11-11-9-9-12--11-11-11-9-9-7--11-11-11-9-9-7--]
d[-x--x--x--x-x-x---x--x--x--x-x-x---x--x--x--x-x-x--x--x--x--x-x-x--]
a[-9--9--9--7-7-10--9--9--9--7-7-10--9--9--9--7-7-5--9--9--9--7-7-5--]
d[-0--0--0--0-0-0---0--0--0--0-0-0---0--0--0--0-0-0--0--0--0--0-0-0--]

Guitar 2

e[-------------------------------------------------------------------]
b[-------------------------------------------------------------------]
g[-7--7-7-7---------7--7-7-7----------11-11-11-11-11--7--7--7--7--7--]
d[-0--0-0-0---------0--0-0-0----------9--9--9--9--9---5--5--5--5--5--]
a[-0--0-0-0---------0--0-0-0----------9--9--9--9--9---5--5--5--5--5--]
d[-0--0-0-0---------0--0-0-0----------9--9--9--9--9---5--5--5--5--5--]

e[-------------------------------------------------------------------]
b[-------------------------------------------------------------------]
g[-7--7-7-7---------7--7-7-7----------11-11-11-11-11--7--7--7--7--7--]
d[-0--0-0-0---------0--0-0-0----------9--9--9--9--9---5--5--5--5--5--]
a[-0--0-0-0---------0--0-0-0----------9--9--9--9--9---5--5--5--5--5--]
d[-0--0-0-0---------0--0-0-0----------9--9--9--9--9---5--5--5--5--5--]


Verse 2

Guitars 1 & 2

e[-------------------------------------------------------------------]
b[-------------------------------------------------------------------]
g[-777--777--777--777-----666--666--666----6-4-----------------------]
d[-000--000--000--000-----777--777--777----7-7-9---------------------]
a[-000--000--000--00000---444--444--44444--4-4-7---------------------]
d[-000--000--000--00000---444--444--44444--4-4-7---------------------]
                     ..                .. 

Guitar 1

e[-------------------------------------------------------------------]
b[-------------------------------------------------------------------]
g[-777--777--777--777----6-6-7-9-9/12/-11-9-11-----------------------]
d[-000--000--000--000----7-x-x-x-x-x---x--x-x------------------------]
a[-000--000--000--00000--4-4-5-7-7/10/-9--7-9------------------------]
d[-000--000--000--00000--4-------------------------------------------]
                     ..                 
Guitar 2

Tremolo pick these notes

e[-------------------------------------------------------------------]
b[-------------------------------------------------------------------]
g[-7777-11-11-77-12-12-77-11-11-77-9-9-77-11-11-77-------------------]
d[-------------------------------------------------------------------]
a[-------------------------------------------------------------------]
d[-------------------------------------------------------------------]

e[-------------------------------------------------------------------]
b[-------------------------------------------------------------------]
g[-7777-11-11-77-12-12-77-11-11-77-9-9-77-11-11-77-------------------]
d[-------------------------------------------------------------------]
a[-------------------------------------------------------------------]
d[-------------------------------------------------------------------]

e[-17-15-14----------------------------------------------------------]
b[----------17-15-14-15/---------------------------------------------]
g[-------------------------------------------------------------------]
d[-------------------------------------------------------------------]
a[-------------------------------------------------------------------]
d[-------------------------------------------------------------------]

Pre-chorus (Both Guitars)

e[-------------------------------------------------------------------]
b[-------------------------------------------------------------------]
g[----------------7---11-11-11-11-11-7----------7--------------------]
d[-11h12-12-12-11-5---9--9--9--9--9--5--222/4-4-5--------------------]
a[-9-----9--9--9--5---9--9--9--9--9--5--222/4-4-5--------------------]
d[-9-----9--9--9--5---9--9--9--9--9--5--222/4-4-5--------------------]

Chorus

Guitar 1

e[-------------------------------------------------------------------]
b[-------------------------------------------------------------------]
g[-11-11-11-9-9-12--11-11-11-9-9-12--11-11-11-9-9-7--11-11-11-9-9-7--]
d[-x--x--x--x-x-x---x--x--x--x-x-x---x--x--x--x-x-x--x--x--x--x-x-x--]
a[-9--9--9--7-7-10--9--9--9--7-7-10--9--9--9--7-7-5--9--9--9--7-7-5--]
d[-0--0--0--0-0-0---0--0--0--0-0-0---0--0--0--0-0-0--0--0--0--0-0-0--]


e[-------------------------------------------------------------------]
b[-------------------------------------------------------------------]
g[-11-11-11-9-9-12--11-11-11-9-9-12--11-11-11-9-9-7--11-11-11-9-9-7--]
d[-x--x--x--x-x-x---x--x--x--x-x-x---x--x--x--x-x-x--x--x--x--x-x-x--]
a[-9--9--9--7-7-10--9--9--9--7-7-10--9--9--9--7-7-5--9--9--9--7-7-5--]
d[-0--0--0--0-0-0---0--0--0--0-0-0---0--0--0--0-0-0--0--0--0--0-0-0--]

Guitar 2

e[-------------------------------------------------------------------]
b[-------------------------------------------------------------------]
g[-7--7-7-7---------7--7-7-7----------11-11-11-11-11--7--7--7--7--7--]
d[-0--0-0-0---------0--0-0-0----------9--9--9--9--9---5--5--5--5--5--]
a[-0--0-0-0---------0--0-0-0----------9--9--9--9--9---5--5--5--5--5--]
d[-0--0-0-0---------0--0-0-0----------9--9--9--9--9---5--5--5--5--5--]

e[-------------------------------------------------------------------]
b[-------------------------------------------------------------------]
g[-7--7-7-7---------7--7-7-7----------11-11-11-11-11--7--7--7--7--7--]
d[-0--0-0-0---------0--0-0-0----------9--9--9--9--9---5--5--5--5--5--]
a[-0--0-0-0---------0--0-0-0----------9--9--9--9--9---5--5--5--5--5--]
d[-0--0-0-0---------0--0-0-0----------9--9--9--9--9---5--5--5--5--5--]


Post-Chorus? "This could be your home when you're all alone..."

Guitar 1

e[-------------------------------------------------------------------]
b[-------------------------------------------------------------------]
g[-11-11-11-9-9-12--11-11-11-9-9-12--14-14-14-14-14-14-12-11/12-11/12]
d[-x--x--x--x-x-x---x--x--x--x-x-x---x--x--x--x--x--x--x--x--x--x--x-]
a[-9--9--9--7-7-10--9--9--9--7-7-10--12-12-12-12-12-12-10-9/-10-9/-10]
d[-0--0--0--0-0-0---0--0--0--0-0-0---0--0--0--0--0--0--0--0--0--0--0-]

e[-------------------------------------------------------------------]
b[-------------------------------------------------------------------]
g[-11-11-11-9-9-12--11-11-11-9-9-12--14-14-14-14-14-14-12-11/12-11/12]
d[-x--x--x--x-x-x---x--x--x--x-x-x---x--x--x--x--x--x--x--x--x--x--x-]
a[-9--9--9--7-7-10--9--9--9--7-7-10--12-12-12-12-12-12-10-9/-10-9/-10]
d[-0--0--0--0-0-0---0--0--0--0-0-0---0--0--0--0--0--0--0--0--0--0--0-]


Guitar 2 

e[-------------------------------------------------------------------]
b[-------------------------------------------------------------------]
g[-----7---7------7---7--4-4/7---7-7-6/7-6/7-------------------------]
d[-0-0-x-0-x--0-0-x-0-x--x-x-x-0-x-x-x-x-x-x-------------------------]
a[-0-0-5-0-5--0-0-5-0-5--2-2/5-0-5-5-4/5-4/5-------------------------]
d[-0-0---0----0-0---0----------0-------------------------------------]

e[-------------------------------------------------------------------]
b[-------------------------------------------------------------------]
g[-----7---7------7---7--4-4/7---7-7-6/7-6/7-------------------------]
d[-0-0-x-0-x--0-0-x-0-x--x-x-x-0-x-x-x-x-x-x-------------------------]
a[-0-0-5-0-5--0-0-5-0-5--2-2/5-0-5-5-4/5-4/5-------------------------]
d[-0-0---0----0-0---0----------0-------------------------------------]

Interlude

Guitar 1

e[-------------------------------------------------------------------]
b[-------------------------------------------------------------------]
g[-11~-11/12/11-9-9/11-6b-------------11~-11/12/11-9-9/11-6b---------]
d[-x---x--x--x--x-x-x--x--------------x---x--x--x--x-x-x--x----------]
a[-9~--9/-10/9--7-7/9--4b-------------9~--9/-10/9--7-7/9--4b---------]
d[-0~--0--0--0--0-0-0-----------------0~--0--0--0--0-0-0-------------]


Guitar 2

e[-0~--0~-----0~----------------------0~--0~-----0~------------------]
b[-3~----3~-----3~--3--2b-2b-2b~------3~----3~-----3~--3-2b-2b-2b~---]
g[-2~------2~-----2~------------------2~------2~-----2~--------------]
d[-0~---------------------------------0~-----------------------------]
a[-0~---------------------------------0~-----------------------------]
d[-0~---------------------------------0~-----------------------------]

Guitar 3

There's a guitar in the background playing this. Tremolo pick these notes.

e[-22--22-21-19-17---17-19-21----------------------------------------]
b[-------------------------------------------------------------------]
g[-------------------------------------------------------------------]
d[-------------------------------------------------------------------]
a[-------------------------------------------------------------------]
d[-------------------------------------------------------------------]

Build-up

Guitar 1
(Not actual amount of strums, but you get the point.)

e[-------------------------------------------------------------------]
b[-------------------------------------------------------------------]
g[-------------------------------------------------------------------]
d[-------------------------------------------------------------------]
a[-00000000000000000000000000000004444444444444444444444444444444444-]
d[-00000000000000000000000000000004444444444444444444444444444444444-]
   .................................................................


e[-------------------------------------------------------------------]
b[-------------------------------------------------------------------]
g[----------------------------------------------------------66666666-]
d[------------------------------------------------777777777777777777-]
a[-00000000000000000000000000000004444444444444444444444444444444444-]
d[-00000000000000000000000000000004444444444444444444444444444444444-]
   ........................................ . (Gradually release P.M.)

Guitar 2

e[-------------------------------------------------------------------]
b[-------------------------------------------------------------------]
g[-------------------------------------------------------------------]
d[-00000000000000000000000000000004444444444444444777777777999777555-]
a[-------------------------------------------------------------------]
d[-------------------------------------------------------------------]
   .................................................................

e[-------------------------------------------------------------------]
b[-------------------------------------------------------------------]
g[-------------------------------------------------------------------]
d[777999121299777777999121212129999-777999121299777777999121212129999]
a[-------------------------------------------------------------------]
d[-------------------------------------------------------------------]
  ...................................................................

e[-------------------------------------------------------------------]
b[-------------------------------------------------------------------]
g[-------------------------------------------------------------------]
d[1111111212121111111121212111111121212111111121212141414141616161616]
a[-------------------------------------------------------------------]
d[-------------------------------------------------------------------]
  ............................... .  .    .   (Gradually release P.M.)

Breakdown

Both Guitars

e[-----------------------------------------------------------------]
b[-----------------------------------------------------------------]
g[-777--777--777--777---666--666--666---6-4------------------------]
d[-000--000--000--000---777--777--777---7-7-9----------------------]
a[-0000-0000-0000-00000-4444-4444-44444-4-4-7----------------------]
d[-0000-0000-0000-00000-4444-4444-44444-4-4-7----------------------]
      .    .    .    ..    .    .    ..

e[-----------------------------------------------------------------]
b[-----------------------------------------------------------------]
g[-777---777---777---777---666---666---666---6/4-------------------]
d[-000---000---000---000---777---777---777---7--/9-9---------------]
a[-00000-00000-00000-00000-44444-44444-44444-4--/7-7---------------]
d[-00000-00000-00000-00000-44444-44444-44444-4--/7-7---------------]
      ..    ..    ..    ..    ..    ..    ..

Bridge

Guitar 1

e[-------------------------------------------------------------------]
b[-------------------------------------------------------------------]
g[-11111111111111111111111111111111111111119-9-7-7-------------------]
d[-x-x-x-x-x-x-x-x-x-x-x-x-x-x-x-x-x-x-x-x-x-x-x-x-------------------]
a[-9-9-9-9-9-9-9-9-9-9-9-9-9-9-9-9-9-9-9-9-7-7-5-5-------------------]
d[-0-0-0-0-0-0-0-0-0-0-0-0-0-0-0-0-0-0-0-0-0-0-0-0-------------------]

e[-------------------------------------------------------------------]
b[-------------------------------------------------------------------]
g[-9-9-9-9-9-9-9-9-9-9-9-9-12121212121211111111111111----------------]
d[-x-x-x-x-x-x-x-x-x-x-x-x-x-x-x-x-x-x-x-x-x-x-x-x-x-----------------]
a[-7-7-7-7-7-7-7-7-7-7-7-7-1010101010109-9-9-9-9-9-9-----------------]
d[-0-0-0-0-0-0-0-0-0-0-0-0-0-0-0-0-0-0-0-0-0-0-0-0-0-----------------]

Guitar 2

e[-------------------------------------------------------------------]
b[-------------------------------------------------------------------]
g[-------------------------------------------------------------------]
d[-111111111111111111111111121212111111-779977-----------------------]
a[-9-9-9-9-9-9-9-9-9-9-9-9-9-9-9-9-9-9--779977-----------------------]
d[-9-9-9-9-9-9-9-9-9-9-9-9-9-9-9-9-9-9--779977-----------------------]

e[-------------------------------------------------------------------]
b[-------------------------------------------------------------------]
g[-------------------------7-7-7-1111119-9-9-9-9---------------------]
d[-5-5-5-5-5-5-5-5-5-5-5-5-5-5-5-7-7-7-7-7-7-7-7---------------------]
a[-5-5-5-5-5-5-5-5-5-5-5-5-5-5-5-7-7-7-7-7-7-7-7---------------------]
d[-5-5-5-5-5-5-5-5-5-5-5-5-5-5-5-7-7-7-7-7-7-7-7---------------------]



Chorus

Guitar 1

e[-------------------------------------------------------------------]
b[-------------------------------------------------------------------]
g[-11-11-11-9-9-12--11-11-11-9-9-12--11-11-11-9-9-7--11-11-11-9-9-7--]
d[-x--x--x--x-x-x---x--x--x--x-x-x---x--x--x--x-x-x--x--x--x--x-x-x--]
a[-9--9--9--7-7-10--9--9--9--7-7-10--9--9--9--7-7-5--9--9--9--7-7-5--]
d[-0--0--0--0-0-0---0--0--0--0-0-0---0--0--0--0-0-0--0--0--0--0-0-0--]

e[-------------------------------------------------------------------]
b[-------------------------------------------------------------------]
g[-11-11-11-9-9-12--11-11-11-9-9-12--11-11-11-9-9-7--11-11-11-9-9-7--]
d[-x--x--x--x-x-x---x--x--x--x-x-x---x--x--x--x-x-x--x--x--x--x-x-x--]
a[-9--9--9--7-7-10--9--9--9--7-7-10--9--9--9--7-7-5--9--9--9--7-7-5--]
d[-0--0--0--0-0-0---0--0--0--0-0-0---0--0--0--0-0-0--0--0--0--0-0-0--]

Guitar 2

e[-------------------------------------------------------------------]
b[-------------------------------------------------------------------]
g[-7--7-7-7---------7--7-7-7----------11-11-11-11-11--7--7--7--7--7--]
d[-0--0-0-0---------0--0-0-0----------9--9--9--9--9---5--5--5--5--5--]
a[-0--0-0-0---------0--0-0-0----------9--9--9--9--9---5--5--5--5--5--]
d[-0--0-0-0---------0--0-0-0----------9--9--9--9--9---5--5--5--5--5--]

e[-------------------------------------------------------------------]
b[-------------------------------------------------------------------]
g[-7--7-7-7---------7--7-7-7----------11-11-11-11-11--7--7--7--7--7--]
d[-0--0-0-0---------0--0-0-0----------9--9--9--9--9---5--5--5--5--5--]
a[-0--0-0-0---------0--0-0-0----------9--9--9--9--9---5--5--5--5--5--]
d[-0--0-0-0---------0--0-0-0----------9--9--9--9--9---5--5--5--5--5--]


Post-Chorus

Guitar 1

e[-------------------------------------------------------------------]
b[-------------------------------------------------------------------]
g[-11-11-11-9-9-12--11-11-11-9-9-12--14-14-14-14-14-14-12-11/12-11/12]
d[-x--x--x--x-x-x---x--x--x--x-x-x---x--x--x--x--x--x--x--x--x--x--x-]
a[-9--9--9--7-7-10--9--9--9--7-7-10--12-12-12-12-12-12-10-9/-10-9/-10]
d[-0--0--0--0-0-0---0--0--0--0-0-0---0--0--0--0--0--0--0--0--0--0--0-]

e[-------------------------------------------------------------------]
b[-------------------------------------------------------------------]
g[-11-11-11-9-9-12--11-11-11-9-9-12--14-14-14-14-14-14-12-11/12-11/12]
d[-x--x--x--x-x-x---x--x--x--x-x-x---x--x--x--x--x--x--x--x--x--x--x-]
a[-9--9--9--7-7-10--9--9--9--7-7-10--12-12-12-12-12-12-10-9/-10-9/-10]
d[-0--0--0--0-0-0---0--0--0--0-0-0---0--0--0--0--0--0--0--0--0--0--0-]


Guitar 2 

e[-------------------------------------------------------------------]
b[-------------------------------------------------------------------]
g[-----7---7------7---7--4-4/7---7-7-6/7-6/7-------------------------]
d[-0-0-x-0-x--0-0-x-0-x--x-x-x-0-x-x-x-x-x-x-------------------------]
a[-0-0-5-0-5--0-0-5-0-5--2-2/5-0-5-5-4/5-4/5-------------------------]
d[-0-0---0----0-0---0----------0-------------------------------------]

e[-------------------------------------------------------------------]
b[-------------------------------------------------------------------]
g[-----7---7------7---7--4-4/7---7-7-6/7-6/7-------------------------]
d[-0-0-x-0-x--0-0-x-0-x--x-x-x-0-x-x-x-x-x-x-------------------------]
a[-0-0-5-0-5--0-0-5-0-5--2-2/5-0-5-5-4/5-4/5-------------------------]
d[-0-0---0----0-0---0----------0-------------------------------------]


End

Guitar 1

e[-------------------------------------------------------------------]
b[-------------------------------------------------------------------]
g[-11~---------------------------------------------------------------]
d[-x-----------------------------------------------------------------]
a[-9~----------------------------------------------------------------]
d[-0~----------------------------------------------------------------]

Guitar 2

e[-------------------------------------------------------------------]
b[-------------------------------------------------------------------]
g[-------------------------------------------------------------------]
d[-0~----------------------------------------------------------------]
a[-0~----------------------------------------------------------------]
d[-0~----------------------------------------------------------------]

Tap to rate this tab
 
# A B C D E F G H I J K L M N O P Q R S T U V W X Y Z