Song name
# A B C D E F G H I J K L M N O P Q R S T U V W X Y Z

Senses Fail - Buried A Lie Acoustic tab

Intro Guitar 1
e|----------------------------------|
B|----------------------------------|
G|-----2------------------2---------|
D|---0-----4---2----4---0-----4---2-|
A|-4---------4--------4---------4---|
D|----------------------------------|

Intro Guitar 2
e|----------------------------------------|
B|------------------------0-00000---------|
G|-4--4x7-7-7-7-7-7-7-7-7x0-00000---------|
D|-4--4x7-7-7-7-7-7-7-7-7x2-22222---------|
A|-2--2x5-5-5-5-5-5-5-5-5x2-22222---------|
D|----------------5-5-5-5x----------------|

Chorus x2 Guitar 1
e|----------------------------------|
B|----------------------------------|
G|-6----7----14----11----12----9----|
D|-6-x3-7-x3-14-x6-11-x3-12-x3-9-x5-|
A|-4----5----12----9-----10----7----|
D|-4----5----12----9-----10----7----|

Chorus x2 Guitar 2
e|----------------------------------|
B|----------------------------------|
G|-6----7----14----11----12----9----|
D|-4-x3-5-x3-12-x6-9-x3--10-x3-7-x5-|
A|-4----5----12----9-----10----7----|
D|-4----5----12----9-----10----7----|

Fill Both Guitars
e|-----------------------------------------|
B|-----------------------------------------|
G|-----------------------------------------|
D|-5----0----5----0----5----0----5----0----|
A|-5-x3-0-x3-5-x3-0-x3-5-x7-0-x3-5-x3-0-x3-|
D|-5----0----5----0----5----0----5----0----|

Verse Guitar 1
|---------------------------------------------------------------------|
|---------------------------------------------------------------------|
|---------------------------------------------------------------------|
|-0000000000000000-4444444444444444-9999999999999999-5555555555555555-|
|-0000000000000000-4444444444444444-9999999999999999-5555555555555555-|
|-0000000000000000-4444444444444444-9999999999999999-5555555555555555-|


Verse Guitar 2 Come in on "I went to your Grave"...
|--------------------------------------------|
|-222-101010-7777-5555--222-101010-7777-8888-|
|--------------------------------------------|
|--------------------------------------------|
|--------------------------------------------|
|--------------------------------------------|

Verse continued Guitar 2
|----------------------------------------|
|-222-101010-7777-5555--3333333333333333-|
|----------------------------------------|
|----------------------------------------|
|----------------------------------------|
|----------------------------------------|

"Ill get the evidence".... Guitar 1
|-----------------------------------|
|-----10---7-------------10---7-----|
|-6h7--------6-9---7-6h7--------6-9-|
|-----------------------------------|
|-----------------------------------|
|-----------------------------------|
Tap to rate this tab
# A B C D E F G H I J K L M N O P Q R S T U V W X Y Z