Song name
# A B C D E F G H I J K L M N O P Q R S T U V W X Y Z

Senses Fail - Cinco De Mayo tab

Help us improve GuitareTab! Take a short survey!
no one else had a tab of this up, so i figured out the intro just now
no one had a tab up probably because its unreleased, but its still one of the better 
by them. this is my first tab by the way...
Drop D tuning
   

e---------------------------------------------------|
b---------------------------------------------------|
g---------------------------------------------------| 2x
d--------8-8-------------5-----------8-8---------5--|
a---------------------------------------------------|
D-5-5-5----------5-5-----------5-5-5---------5-5----|

e---------------------------------------------------|
b---------------------------------------------------|
g-----------------2----------------5----------------|
d--------3-3---------------5-5---------------8-8----|
a---------------------------------------------------|
D-1-1-1-------1-1----3-3-3-----3-3-----5-5-5--------|

e---------------------------------------------------|
b---------------------------------------------------|
g---------------------------------------------------|
d------5-----8-7-3-5--------------------------------|
a---------------------------------------------------|
D-5-5---5-5---5-5-5---------------------------------|

thats all i got for now
i may tab out the rest of it later
Related for Cinco De Mayo tab