Song name
# A B C D E F G H I J K L M N O P Q R S T U V W X Y Z

Sentenced - The Truth tab

Sentenced - "The Truth" intro Solo
Rotting ways to misery (1991,demo)

in Standard C tuning. 2 Steps down.


||---------------------------------------------------------|| 
||---------------------------------------------------------||
||-10-12h-10~--10-12-13-12-10----10------------------------||
||----------------------------12----12-10~~----------------||
||------------------------------------------10-12h10h12-9~~||
||---------------------------------------------------------||

||---------------------------------------------------------|| 
||---------------------------------------------------------||
||-------------------------10-12-13-10-12b-(12)-10ph~~-----||
||-------------10-12-10-12h--------------------------------||
||-10-12-10-12h--------------------------------------------||
||---------------------------------------------------------||

||---------------------------------------------------------|| 
||--------------------------13-15-13-15-13-----------------||
||-13-15-15b---16--13-15-16----------------15-13-15~~------||
||---------------------------------------------------------||
||---------------------------------------------------------||
||---------------------------------------------------------||

||---------------------------------------------------------|| 
||----------12b--------------------------------------------||
||-14-16-17-----12-14-12~~---15-17-17b-17~~----------------||
||---------------------------------------------------------||
||---------------------------------------------------------||
||---------------------------------------------------------||

||---------------------------------------------------------|| 
||----------15-17-18-17-15----------------15-17-15-17------||
||-15-17-18----------------17~~--15-17-18------------------||
||---------------------------------------------------------||
||---------------------------------------------------------||
||---------------------------------------------------------||

||---------------------------------------------------------|| 
||-13-15-13-15-13------------------------------------------||
||----------------15-13-15~~-15~~13-15-13-12---------------||
||---------------------------------------------------------||
||---------------------------------------------------------||
||---------------------------------------------------------||

||-23-21-19-23-21-19...-19-17-15-19-17-15------------------|| 
||---------------------------------------------------------||
||---------------------------------------------------------||
||---------------------------------------------------------||
||---------------------------------------------------------||
||---------------------------------------------------------||

||--11hb-11b-11b-11b-9-11-9/////Slide----------------------|| 
||---------------------------------------------------------||
||---------------------------------------------------------||
||---------------------------------------------------------||
||---------------------------------------------------------||
||---------------------------------------------------------||
Tap to rate this tab
 
# A B C D E F G H I J K L M N O P Q R S T U V W X Y Z