Song name
# A B C D E F G H I J K L M N O P Q R S T U V W X Y Z

Sentenced - Shadegrown tab

Shadegrown

Tabbed by: Ulisses Dalcól, jbco00@terra.com.br (Brazil) 


Hi, this is my first attempt to tab something. Sounds good to me. 
I´ve been looking all over the web trying to find tabs from Sentenced
but there is just the same, seems to me that no one like this great band.
If you find any mistake send an e-mail or fix it yourself.
By the way if you have other tabs let me know too. Enjoy my agony!!!!  


Intro (Acoustic) Am7 

--------------|-------------|------------|-----------------------------
-------1-0----|------0------|-----1------|-1-----0---------------------
-------0---0--|------0-0----|-----0-0----|---0-----0-------------------
----2--2----2-|---2------0--|---2-2--2---|-2---0-----0-----------------
--0----3~-----|-0----2~-----|-0---3~---0-|-3-----2---------------------
--------------|-------------|------------|-----------------------------

Verse (Guitar 1)

---------|----------------------------|-------------------------------
---------|----------------------------|-------------------------------
-2~~~~---|-----2X2~~------------------|-2~~--------5-5-5-5---4-4-4-4--
-2~~~~---|-----2X2~~------------3~----|-2~~--------5-5-5-5---4-4-4-4--
-0~~~~---|-----0X0~~----3h5-3-5---5--3|-0~~~------3-3-3-3---2-2-2-2---
---------|----------------------------|-------------------------------

Verse (Guitar 2)

-------------------------------------------------------------------------------------
-----1-------3-------5-------3-------1-------3--------1----0-------------------------
-----------------------------------------------------0----0--------------------------
---2---2---4---4---5---5---4---4---2---2---4---4----2----0---------------------------
-0-------0-------0-------0-------0-------0-------0-3----2-------2h3p2p0--------------
-------------------------------------------------------------------------------------


Break (Guitar1)

---------|----------------------------|-------------------------------
---------|----------------------------|-------------------------------
-2~~~~---|-----2X2~~------------------|-2~~--------5-5-5-5---4-4-4-4--
-2~~~~---|-----2X2~~------------3~----|-2~~--------5-5-5-5---4-4-4-4--
-0~~~~---|-----0X0~~----3h5-3-5---5--3|-0~~~------3-3-3-3---2-2-2-2---
---------|----------------------------|-------------------------------

Break (Guitar 2) Pretty Fast (Need Fix)
-----------------------------------------------------------------------------------
-----------------------------------------------------------------------------------
-------0-2-4-5-4-2-0-2-------2-4-5-4-2-0-----2-4-5-4-2-------2-4-5-4-2-0-----------
-------------------------------------------------------5-5-------------------------
--0-0------------------0-0---------------0-0-----------------------------0-0-------
-----------------------------------------------------------------------------------

Bridge 

-----------------0-|----------------0-|-----------------------------------------------
---------------0---|--------------0---|-----------------------------------------------
-------------0-----|------------0-----|-----------------------------------------------
-3x3-3--2~---------|-3X3-3-2~~--------|-3X3-3-2~~--/7~~~~-----------------------------
-3x3-3--2~---------|-3X3-3-2~~--------|-3X3-3-2~~--/7~~~~-----------------------------
-1x1-1--0~---------|-1X1-1-0~~--------|-1X1-1-0~~--/5~~~~-----------------------------


Chorus

-------------------------------------------------------------------------------------
-------------------------------------------------------------------------------------
---2/7-7-7-7-------------------------5-5-5-5----2/7-7-7-7----------------------------
---2/7-7-7-7---5-5-5-5-----3-3-3-3---5-5-5-5----2/7-7-7-7----------------------------
---0/5-5-5-5---5-5-5-5-----3-3-3-3---3-3-3-3----0/5-5-5-5----------------------------
---------------3-3-3-3-----1-1-1-1---------------------------------------------------

Solo ( I  don´t know)
Tap to rate this tab
# A B C D E F G H I J K L M N O P Q R S T U V W X Y Z