Song name
# A B C D E F G H I J K L M N O P Q R S T U V W X Y Z

Seo Taiji - Heffy End tab

THIS IS LIKE, THE ONLY TEXT TAB FOR THE SONG OUT THERE. I GIVE ALL CREDITS TO SEO TAIJI
CREATING THE SONG SO I COULD ADD THIS TAB. THIS TAB CONTAINS SIX GUITAR PARTS BUT IT'S
TWO GUITARS. I JUST DID THIS SINCE THERE IS AN ACOUSTIC GUITAR BIT WITH TWO GUITARS, AND 
REST IS JUST DISORTION GUITARS IN THE SONG. NOTE THAT THIS TAB MIGHT NOT BE PERFECT,
IT MIGHT MISS SMALL PARTS, IT'S STILL A FUN SONG TO WORK ON.
Tuning:Drop C
LOW TO HIGH, CGCFAD

please leave comments and rate ;) if you want me to make requests, just pm me or send me
e-mail: jungwooalchemist14@hushmail.com

Tabbers name:Eric Jansson Jung Woo Park

Guitar 1:
|-0---0----0--0----0---2-0----|
|--3---3-3--3--3-3--3---3-3---|
|---2---2----2--2----2--------|  x3
|-----------------------------|
|-----------------------------|
|-----------------------------|

Guitar 2 and 3:
|--------------|
|--------------|
|--------------|
|-0-4----5-5-7-|
|-0-4----5-5-7-|
|-0-4----5-5-7-|

guitar one continues, and guitar 2 and 3 is the same.

Guitar 4 comes in the second time:
|--------------------------------------------------------|
|--------------------------------------------------------|
|7-7-7-7-7-7-7-7-7--15-6-6-6-6-6-6-6--9-7-7-7-7-7-7-7----|
|7-7-7-7-7-7-7-7-7--x--6-6-6-6-6-6-6--9-7-7-7-7-7-7-7----|
|5-5-5-5-5-5-5-5-5--12-4-4-4-4-4-4-4--7-5-5-5-5-5-5-5----|
|--------------------------------------------------------|
Guitar 2 and 3:

|---------2h3-2---------|
|2p3h2----------2-2h3h2-|
|------2----------------|
|-----------------------|
|-----------------------|
|-----------------------|

Guitar 1,2,3,4
|-------------------------------------------|
|-------------------------------------------|
|-------------------------------------------|
|-0-0000-0-0-0-0-4-4-44-4-4-5-5-5-555-5-5-5-|
|-0-0000-0-0-0-0-4-4-44-4-4-5-5-5-555-5-5-5-|
|-0-0000-0-0-0-0-4-4-44-4-4-5-5-5-555-5-5-5-|
    ...

|-------------------------------------------------------|
|-------------------------------------------------------|
|-7777777777777777--------------------------------------|
|-7777777788888888--5-5-55-5-5-4-0-0-00-0-0-5-5-55-5-5--|
|-5555555544444444--5-5-55-5-5-4-0-0-00-0-0-5-5-55-5-5--|
|-------------------2-2-22-2-2-4-0-0-00-0-0-2-2-22-2-2--|
|-------------------------------------------------------|
|-------------------------------------------------------|
|-------------------------------------------------------|
|-4-555555555-\12---------------------------------------|
|-4-555555555-\12---------------------------------------|
|-4-555555555-\12---------------------------------------|
guitar 5 and 6
|-------------0-0-00-0-0-2-2-22-2-2------------|
|-3-3-2-2-3-3-9-9-99-9-9-3-3-33-3-3-8-8-88-8-8-|
|-2-2-2-2-2-2-7-7-77-7-7-4-4-44-4-4-7-7-77-7-7-|
|-0-0-0-0-0-0------------4-4-44-4-4-5-5-55-5-5-| x2 and a half
|-0-0-0-0-0-0------------2-2-22-2-2-5-5-55-5-5-|
|-0-0-0-0-0-0-----------------------5-5-55-5-5-|
guitar 3 and 4 comes in with disortion

|------------------------------------------------------------|
|------------------------------------------------------------|
|------------------------------------------------------------|
|9-9-9-9-9-9-9-9-5-5-55-5-5-55-5-----------------------------|
|9-9-9-9-9-9-9-9-5-5-55-5-5-55-5-----------------------------|
|9-9-9-9-9-9-9-9-5-5-55-5-5-55-5-----------------------------|
|------------------------------------------------------------|
|------------------------------------------------------------|
|------------------------------------------------------------|
|0-0-0-0-0-0-0-0-0-0-5-5-5-5-5-5-5-5-4-4-4-4-5-5-5-5-5-5-5-5-|
|0-0-0-0-0-0-0-0-0-0-5-5-5-5-5-5-5-5-4-4-4-4-5-5-5-5-5-5-5-5-|
|0-0-0-0-0-0-0-0-0-0-2-2-2-2-2-2-2-2-4-4-4-4-5-5-5-5-5-5-5-5-|

|---------------------------------------------------------|
|---------------------------------------------------------|
|---------------------------------------------------------|
|5-5-5-5-5-4-5-5-5-5-5-5-2-x-2-2-x-22-5-5-5-5-5-5-0-0-0-0-|
|5-5-5-5-5-4-5-5-5-5-5-5-2-x-2-2-x-22-5-5-5-5-5-5-0-0-0-0-|
|2-2-2-2-2-4-5-5-5-5-5-5-2-x-2-2-x-22-5-5-5-5-5-5-0-0-0-0-|

|------------------------------------------------------|
|------------------------------------------------------|
|7-7-7-7-7-7-8-8-8-------------------------------------|
|7-7-7-5-5-5-6-6-6-0-0-00-0-0-4-4-44-4-4-5-5-5-5-5-\12-|
|5-5-5-5-5-5-4-4-4-0-0-00-0-0-4-4-44-4-4-5-5-5-5-5-\12-|
|------------------0-0-00-0-0-4-4-44-4-4-5-5-5-5-5-\12-|

|----------------------------------------------------------------|
|----------------------------------------------------------------|
|7-7-6-7-7-7-6-7-7-7-7-7-7-7-7-7-6-7-7-7-7-7-6-7-7-7-7-7-7-7-7-7-|
|7-7-7-7-7-7-7-7-7-7-7-7-7-7-7-7-7-7-7-7-7-7-7-7-7-7-7-7-7-7-7-7-|
|5-5-5-5-5-5-5-5-5-5-5-5-5-5-5-5-5-5-5-5-5-5-5-5-5-5-5-5-5-5-5-5-|
|0-0-0-0-0-0-0-0-0-0-0-0-0-0-0-0-0-0-0-0-0-0-0-0-0-0-0-0-0-0-0-0-|0 .......

|--------------------------------------------------|
|--------------------------------------------------|
|--------------------------7-7-7-7-7-7-6-6-6-6-6-6-|
|9-9-99-9-9-9-5-5-55-5-5-5-7-7-7-7-7-7-8-8-8-8-8-8-|
|9-9-99-9-9-9-5-5-55-5-5-5-5-5-5-5-5-5-4-4-4-4-4-4-|   x2
|9-9-99-9-9-9-5-5-55-5-5-5-------------------------|


|----------------------------------------------------------------|
|----------------------------------------------------------------|
|7-7-6-7-7-7-6-7-7-7-7-7-7-7-7-7-6-7-7-7-7-7-6-7-7-7-7-7-7-7-7-7-|
|7-7-7-7-7-7-7-7-7-7-7-7-7-7-7-7-7-7-7-7-7-7-7-7-7-7-7-7-7-7-7-7-|
|5-5-5-5-5-5-5-5-5-5-5-5-5-5-5-5-5-5-5-5-5-5-5-5-5-5-5-5-5-5-5-5-|
|0-0-0-0-0-0-0-0-0-0-0-0-0-0-0-0-0-0-0-0-0-0-0-0-0-0-0-0-0-0-0-0-|0 .......


Guitar 1:
|-0---0----0--0----0---2-0--|
|--3---3-3--3--3-3--3---3-3-|
|---2---2----2--2----2------|
|---------------------------|
|---------------------------|
|---------------------------|

Guitar 2 and 3:
|--------------|
|--------------|
|--------------|
|-0-4----5-5-7-|
|-0-4----5-5-7-|
|-0-4----5-5-7-|

Guitar 4 and 5:
|---------2h3-2---------|
|2p3h2----------2-2h3h2-|
|------2----------------|
|-----------------------|
|-----------------------|
|-----------------------|

THAT'S ALL. *PHEW* PLEASE, PLEASE COME WITH CORRECTIONS, BUT I THINK THIS TAB SHOULD BE
PERFECT. THANK YOU FOR LEARNING THIS AWSOME SONG ;)
Tap to rate this tab
# A B C D E F G H I J K L M N O P Q R S T U V W X Y Z