September Vacancy - Two Days Afternoon tab

----------------------------------------------------------------------------                     
Unnammed Song - September Vacancy
----------------------------------------------------------------------------
Tabbed by: Sept-Vacancy

Tuning: Both guitars are in Drop D tuning - D,A,D,G,B,e

Guitars: Both electric with heavy distortion/overdrive.

----------------------------------------------------------------------------

Intro:

e|***---5h6---5h6---5h6---5h6----------------------------------------------|
B|***--3-----3-----3-----3------1h3---1h3---1h3--3p1-----------------------|
G|***-0-----0------------------3-----3-----3--------2----------------------|
D|***-------------3-----3-----1-----1-----0-----0--------------------------|
A|***----------------------------------------------------------------------|
D|***----------------------------------------------------------------------|

e|-------------------------------------------------------------------------|
B|-------------------------------------------------------------------------|
G|-------------------------------------------------------------------------|
D|12////////555555555-7777-8888-33333333-7777-8888-------------------------|
A|12////////555555555-7777-8888-33333333-7777-8888-------------------------|
D|12////////555555555-7777-8888-33333333-7777-8888-------------------------|
  \  |  /
 Pickscrape 

Lead Guitar
e|-------------------------------------------------------------------------|
B|-------------------------------------------------------------------------|
G|--------------------------/15-14-10-12-----------------------------------|
D|-------------------------------------------------------------------------|
A|-------------------------------------------------------------------------|
D|-------------------------------------------------------------------------|
 
Rhythm Guitar
e|-------------------------------------------------------------------------|
B|-------------------------------------------------------------------------|
G|-------------------------------------------------------------------------|
D|-11111111-7777-8888-00000000-8888-7777-----------------------------------|
A|-11111111-7777-8888-00000000-8888-7777-----------------------------------|
D|-11111111-7777-8888-00000000-8888-7777-----------------------------------|
 (1's not 11's)

-SOLO-----------------------------------------------------------------------

e|-------------------------------------------------------10p8--------------|
B|----------------------11~10~--------11~10-------8h10h11----11-10h11------|
G|-12~-12/14~15~-11~-11--------10~-10-------7h8h10-------------------11-/12|
D|-------------------------------------------------------------------------|
A|-------------------------------------------------------------------------|
D|-------------------------------------------------------------------------|


--------------------------------END OF SONG---------------------------------


----------------------------------------------------------------------------                     
Unnammed Song - September Vacancy
----------------------------------------------------------------------------

Tabbed by: Sept-Vacancy

Tuning: Drop D tuning DADGBe, Capo 2

Guitars: Acoustic guitar, no effects.
----------------------------------------------------------------------------


e|-------------------------------------------------------------------------|
B|-------------------------------------------------------------------------|
G|------2---------2---------0--------0-------------------------------------|
D|---0---0-0---0---0-0---0---4-0---0--4-0----------------------------------|
A|--2-2---2---2-2---2---2-2---2---2-2--2-----------------------------------|
D|-0---------0---------5---------5-----------------------------------------|

e|-------------------------------------------------------------------------|
B|-------------------------------------------------------------------------|
G|------2---------2---------0--------0-------------------------------------|
D|---0---0-0---0---0-0---0---4-0---0--4-0----------------------------------|
A|--2-2---2---2-2---2---2-2---2---2-2--2-----------------------------------|
D|-0---------0---------5---------5-----------------------------------------|

e|-------2--------5-------------------------------------------X------------|
B|-------3--------8--------2-2/3-----------------------9h10p9-3------------|
G|-------4--------7--------2-2~~------------------------------2------------|
D|-2---2-2--5---5-5--0---0-0-0~~--2---X-4--5--5-5--0~~--------0------------|
A|-2---2-2--5---5-5--0---0--------2---X-4--5--5-5--0~~--------0------------|
D|-2---2-2--5---5-5--0---0--------2---X-4--5--5-5--0~~--------0------------|
   D   D U  D   D U  D   D D U    D   D U  D  D U  D          D
e|-------------------------------------------------------------------------|
B|-------------------------------------------------------------------------|
G|-------------------------------------------------------------------------|
D|-------------------------------------------------------------------------|
A|-------------------------------------------------------------------------|
D|-------------------------------------------------------------------------|


************************************

| /   Slide up
| \   Slide down
| h   hammer-on
| p   pull-off
| ~   Vibrato
| +   Harmonic
| X   Mute note
| B   Bend
| pb  Pre-bend
| br   Bend release
| pbr Pre-bend release
| brb Bend release bend
| *   Feedback
| D   Strum down
| U   Strum up

************************************
Tap to rate this tab
 
# A B C D E F G H I J K L M N O P Q R S T U V W X Y Z