Song name
# A B C D E F G H I J K L M N O P Q R S T U V W X Y Z

Septembre - What Goes Up tab

Another Septembre song.

What Goes Up
:Septembre:
Internet Promo
Website: www.myspace.com/septembre


Tuning: C#-G#-C#-F#-A#-D#


Intro

C#|----------------------------------------------|
C#|----------------------------------------------|
G#|-12-12-12-12-12-12-12-12-11-11-11-11-11-------|
C#|-----------------------------------------7~---|
G#|-10-10-10-10-10-10-10-10-9--9--9--9--9---7~---|
C#|-----------------------------------------7~---|

C#|-----------------------------------------------------------|
C#|-----------------------------------------------------------|
G#|-----------------------------------------------------------|
C#|--9-9--9h10p9--9-9--9h10p9--9-9--9h10p9--9-9--9h10p9-------|
G#|--9-9--9h10p9--9-9--9h10p9--9-9--9h10p9--9-9--9h10p9-------|
C#|--9-9--9h10p9--9-9--9h10p9--9-9--9h10p9--9-9--9h10p9-------|


C#|----------------------------------------------|
C#|----------------------------------------------|
G#|----------------------------------------------|
C#|-7-7-7-7-7-7-7-7-9---9---9---9----------------|
G#|-7-7-7-7-7-7-7-7-9---9---9---9----------------|
C#|-7-7-7-7-7-7-7-7-9---9---9---9----------------|


Verse

- Same as intro.


Pre-Chorus (Palm-Muted and very fast)

C#|----------------------------------------------|
C#|----------------------------------------------|
G#|----------------------------------------------|
C#|----------------------------------------------|  x2
G#|-9-9-9-9-9-9-9-9-9-9-9-7-7-7-7-7-7-7-7-7-7-7--|
C#|-9-9-9-9-9-9-9-9-9-9-9-7-7-7-7-7-7-7-7-7-7-7--|


Chorus (I've lost all my friends...)

C#|-----------------------------------------------|
C#|-----------------------------------------------|
G#|-----------------------------------------------|
C#|-4-4-4-4-4-4-4-4-4-4-4-2-2-2-2-2-2-2-2-2-2-2---|
G#|-2-2-2-2-2-2-2-2-2-2-2-0-0-0-0-0-0-0-0-0-0-0---|
C#|-----------------------------------------------|
That's the idea, there are some variations that you can figure out.


Verse

C#|---------------------------------------------------------|
C#|---------------------------------------------------------|
G#|---------------------------------------------------------|
C#|-9~---7~---9~--------------------------------------------|
G#|-9~---7~---9~---and then the same as---------------------|
C#|-9~---7~---9~---the first verse, with some variations----|


Pre-Chorus

C#|----------------------------------------------|
C#|----------------------------------------------|
G#|----------------------------------------------|
C#|----------------------------------------------|  Just one time
G#|-9-9-9-9-9-9-9-9-9-9-9-7-7-7-7-7-7-7-7-7-7-7--|
C#|-9-9-9-9-9-9-9-9-9-9-9-7-7-7-7-7-7-7-7-7-7-7--|

Chorus

And then:

C#|----------------------------------------------|
C#|----------------------------------------------|
G#|----------------------------------------------|
C#|---9-----7-----9-----7-----9------------------|
G#|--9-9---7-7---9-9---7-7---9-9-----------------|
C#|-9-----7-----9-----7-----9--------------------|
You have to play it every time more slow


And finally the song ends with the intro:

C#|----------------------------------------------|
C#|----------------------------------------------|
G#|-12-12-12-12-12-12-12-12-11-11-11-11-11-------|
C#|-----------------------------------------7~---|
G#|-10-10-10-10-10-10-10-10-9--9--9--9--9---7~---|
C#|-----------------------------------------7~---|

C#|-----------------------------------------------------|
C#|-----------------------------------------------------|
G#|-----------------------------------------------------|
C#|--9-9--9h10p9--9-9--9h10p9--9-9-9-9-9-9-9-9--9-------|
G#|--9-9--9h10p9--9-9--9h10p9--9-9-9-9-9-9-9-9--9-------|
C#|--9-9--9h10p9--9-9--9h10p9--9-9-9-9-9-9-9-9--9-------|

--------------------------
As you can see, I'm not good on tabs, but I do my best. Sure it has some wrong things, I 
keep working in the song and I will fix the errors.

Thank you, I hope you like it.

----------------------------------

And don't forget to check out the new Terry's solo project, FEARS.
It's amazing, go to that myspace if you liked Septembre... you won't regret it:

www.myspace.com/iamfears
Tap to rate this tab
# A B C D E F G H I J K L M N O P Q R S T U V W X Y Z