Song name
# A B C D E F G H I J K L M N O P Q R S T U V W X Y Z

Septembre - I Saw That Girl tab

Septembre - I saw that girl
Composer: Terry Abbott
Tabbed by: Alejandro Pérez
Mail: anecsey@hotmail.com

Note: amazing song (voices, guitars, choruses) like all the works of mr Terry Abbott.



|-Intro/bass/verse-||---------Chorus (clean)----------------|
 "Sit down, I will,  "Im so the kind  "Get her out 
  this will hurt"     of like..."    of your head"
E|-----------------|-8---1---6---1-|-8--6--1---|-8--6-5-4-8-|
B|-----------------|-11--4---9---4-|-11-9--4---|-11-9-8-7-11|
G|-----------------|-10--3---8---3-|-10-8--3---|-10-8-7-6-10|
d|-----------------|-8---1---6---1-|-8--6--1---|-8--6-5-4-8-|
A|-----------------|-8---1---6---1-|-8--6--1---|-8--6-5-4-8-|
D|-8888--6666--1111|-8---1---6---1-|-8--6--1---|-8--6-5-4-8-|
                                    X2         x1            X1
                                                    (chorus end)
The second part its the same as before, but with distorsion

 Bridge "All you have to do is find a one for you"

e|-------------------------|------------------------------|
B|-------------------------|--------------------9---------|
G|10-10-10-10-12-12-13-13--|10-10-10-10-12-12----10-------|
d|--8--8--8--8--8--8-11--11|--8--8--8--8--8--8-----8------|
A|-------------------------|------------------------------|
D|-------------------------|------------------------------|
                                                         X2
Power Distorted Part: 
         "All you have to do is        
          find a one for you"  "It will not take forever"
e|--------|------------------|---------------------------|
B|--------|------------------|---------------------------|
G|-7~-13~-|-7~-----12~-13/---|-7~------------------------|
d|--------|----888-----------|----888-55-4---------------|
A|-5~-11~-|-5~-888-10~-11/---|-5~-888-55-4---------------|
D|--------|----888-----------|----888-55-4---------------|


Last Chorus (same as before)
 Last Break (with dist)    End of final chorus
e|----------------------|-----6-5-4-8-------------------|
B|----------------------|1111-9-8-7-11------------------|
G|-10-10-/13-----13-----|1010-8-7-6-10------------------|
d|---8--8---11/13-------|-88--6-5-4-8-------------------|
A|----------------------|-88--6-5-4-8-------------------|
D|----------------------|-88--6-5-4-8-------------------|

Tap to rate this tab
 
# A B C D E F G H I J K L M N O P Q R S T U V W X Y Z