Guitaretab - guitar tabs
Song name
# A B C D E F G H I J K L M N O P Q R S T U V W X Y Z

Septic Flesh - Unbeliever tab

Septic Flesh: Unbeliever

I play this song in standard tuning, they might use something lower, but w/e.

The main riff might be wrong but it's really hard to hear.

Intro:  (00:05-00:24) (00:44-01:02) (03:17-03:35---|
---------------------------------------------------|
---------------------------------------------------|
---------------------------------------------------|
4-----4------4-----4----5-------5-----5------5-----|
2-----2------2-----2----3-------3-----3------3-----|
--0-0---0-0---0-0---0-0----1-1----1-1----1-1---1-1-|

Main riff: (00:25-00:43) (01:03-01:21) (03:36-3:55-|
---------------------------------------------------|
---------------------------------------------------|
---------------------------------------------------|
---4--4---4-------5-----5----5-7----------|
-2---2---2---2--3----3-----3----------------|
---------------------------------------------------|
[ Tab from: http://www.guitaretab.com/s/septic-flesh/180592.html ]
Breakdown riff: (01:22-01:40)(02:38-03:16)(04:02-|04:21)
-------------------------------------------------|
-------------------------------------------------|
---4---------------------------------------------|
3--4---------------------------------------------|
3--2---------------------------------------------|
1------------------------------------------------|

Breakdown riff 2: (01:41-02:00) (04:22-end)  (All palm muted)
-------------------------------------------------|
-------------------------------------------------|
-------------------------------------------------|
-------------------------------------------------|
-------------------------------------------------|
0---0-0-0---0---0-0-0---0---0-0-0--3-3-3--1-1-1--|


Interlude: (02:01-2:38)
-------------------------------------------------|
-------------------------------------------------|
-------------------------------------------------|
2---2--------------------------------------------|
2---2--------------------------------------------|
0---0---1-1-3------------------------------------|
        * *
Riff after the talking part: (02:39-02:57)
-------------------------------------------------|
-------------------------------------------------|
---------------4--------4---------3--------------|
2--------2-----4--------4---------3--------------|
2--------2-----2---2-2--2---2--2--1--------------|
0--0-0---0-0-0-----------------------------------|
   * *     * *     * *      *  *
Related for Unbeliever tab