Song name
# A B C D E F G H I J K L M N O P Q R S T U V W X Y Z

Septic Flesh - Anubis tab

intro
------------------------------------|
-------------------------8----------|
--10--11--10--8--10--11-----10--8---|
------------------------------------|
------------------------------------|
------------------------------------|
verse
--5----0--5--0--5----5----0--3--0--3---|
---------------------------------------|
---------------------------------------|
---------------------------------------|
----0--------------0----0--------------|
----0--------------0----0--------------|
chorus
--0-0-0-0-000-0-0-0-0-0-0-000-0-0-0-0-0-0-000-0-0-0-0---------------|
--2-2-2-2-222-2-2-2-2-2-2-222-2-2-2-2-2-2-222-2-2-2-2--6-6-6-5-5-4--|
--------------------------------------------------------------------|
-------------------------------------------------------8-8-8-7-7-6--|
--------------------------------------------------------------------|
--------------------------------------------------------------------|


intro x16
verse x5
chorus x2
verse x5
chorus x4

soloish
---------------------------------| x2
--3--3--4--4--3--3--6--6--3--3---|
---------------------------------|
--5--5--6--6--5--5--8--8--5--5---|
---------------------------------|
---------------------------------|

intro x16
verse x5
*little pause*
verse x4
Tap to rate this tab
# A B C D E F G H I J K L M N O P Q R S T U V W X Y Z