Song name
# A B C D E F G H I J K L M N O P Q R S T U V W X Y Z

Septic Flesh - Babels Gate tab

Well, this might not be accurate, but I did what I could do (it's my first tab). The 
song is written in C tuning, but I worked it out in standard tuning.

Please, send any suggestions to horacekm@email.cz

E|-----------------------------------------------------------|
B|-----------------------------------------------------------|
G|-----------------------------------------------------------|
D|--9-10--10-12--12-14--14-(14)--9-10--10-12--12-(12)--------|
A|--7-8---8--10--10-12--12-(12)--7-8---8--10--10-(10)--------|
E|-----------------------------------------------------------|

E|-----------------------------------------------------------|
B|---------------------------------------------14b16br14b16--|
G|--------------------------------------12-13----------------|
D|--13-13--13-12----12--16b17--15-(15)-----------------------|
A|---------------15------------------------------------------|
E|-----------------------------------------------------------|

E|---------------------------------------14b15b16------------|
B|--14p12p11--14b15---11-12-------11-12----------------------|
G|--------------------------13-14----------------------------|
D|-----------------------------------------------------------|
A|-----------------------------------------------------------|
E|-----------------------------------------------------------|

p  pull-off
b  bend
b  bend release
() let ring
Tap to rate this tab
# A B C D E F G H I J K L M N O P Q R S T U V W X Y Z