Song name
# A B C D E F G H I J K L M N O P Q R S T U V W X Y Z

Septic Flesh - Tartarus tab

Septic Flesh - Tartarus (Solo)
Normal tuning.

|------------------------------13-12---------------------------------------------|
|----10-10-10--10/15~----13-15-------13----------------10------------------------|
|---x-----------------------------------12-14~---10h12----10-12-10-9h10p9-5-5/7~-|
|--x-----------------------------------------------------------------------------|
|-x------------------------------------------------------------------------------|
|--------------------------------------------------------------------------------|

|------------------------------------------------------15~p12-------------|
|----15-p13p12h15p13p12t19p13p12\7t15p10-8-7----------x------15p12--------|
|---x----------------------------------------7-------x------------12h14~--|
|--x-------------------------------------------7~---x---------------------|
|-x-----------------------------------------------------------------------|
|-------------------------------------------------------------------------|

|----15~p12---------------------------------------------------------------|
|---x------15p13p12-----------------12------------------------------------|
|--x---------------14-12------------14b-----------------------------------|
|-x----------------------14-12-14~----------------------------------------|
|-------------------------------------------------------------------------|
|-------------------------------------------------------------------------|
Tap to rate this tab
# A B C D E F G H I J K L M N O P Q R S T U V W X Y Z