Song name
# A B C D E F G H I J K L M N O P Q R S T U V W X Y Z

Sepultura - Escape To The Void tab

-----------------------------------------------------
              Artist: SEPULTURA
              Album:  SCHIZOPHRENIA(1987)
              Song:   ESCAPE THE VOID
-----------------------------------------------------
Tabbed by: Deathzmetal666

E-mail: soulmaind_93@hotmail.com

e|---------------------|
B|---------------------|
G|---------------------|
D|-----------------4-3-|
A|-----2----2----2-2-1-|
E|--00-0-00-0-00-0-----|

e|---------------------------------------------|
B|---------------------------------------------|
G|---------------------------------------------|
D|--------------------------5------------------|
A|-------------5------------3----------------5-|
E|-22222222222-3-2222222222---22222222222222-3-|

e|---------------------|
B|---------------------|
G|---------------------|
D|---------------------|
A|--5--4----5--4----2--|
E|--3--2----3--2----0--|

                 3x|-1st---|-2nd---|
e|-----------------|-------|-------|
B|-----------------|-------|-------|
G|-----------------|-------|-------|
D|-----------------|-------|--4-5--|
A|--2--------------|--5-6--|--2-3--|
E|--0-0-0-0-0-0-0--|--3-4--|-------|
      This note is P.M. when played 4th time.

e|--------------------------------------------------------------------|
B|--------------------------------------------------------------------|
G|--------------------------------------------------------------------|
D|-------------------4-----------------6------------8---------------7-|
A|-------------------2-11111111111111--44444444444446-5555555555555-5-|
E|--2222222222222222--------------------------------------------------|

e|--------------------------------------------|
B|--------------------------------------------|
G|--------------------------------------------|
D|--------------------------------------------|
A|--8---------8-------------------------6--6--|
E|--6-0-0-0-0-6-0-0-0-0-0-0-0-0-0-0-0-0-4--4--|

e|------------------------------|-----------------------------|
B|------------------------------|-----------------------------|
G|------------------------------|-----------------------------|
D|------------------------------|-----------------------------|
A|------------------------------|------------------------2/3--|
E|--0-000000000-000000000-0-4/3-|-0-000000000-000000000-0-----|

e|--------------------------------------------------------------|
B|--------------------------------------------------------------|
G|--------------------------------------------------------------|
D|--4-----4-----4-----4-----4--5--3-----3-----3-----3-----3--5--|
A|--2-----2-----2-----2-----2--3--1-----1-----1-----1-----1--3--|
E|----0-0---0-0---0-0---0-0---------0-0---0-0---0-0---0-0-------|

e|----------------------------------|----------------------------------|
B|----------------------------------|----------------------------------|
G|----------------------------------|----------------------------------|
D|----------------------------------|-------------------------------0--|
A|----2-3---2-3---2-3---2-3-2-3-2-3-|---1-2---1-2---1-2---1-2---1-2----|
E|--0-----0-----0-----0-------------|-0-----0-----0-----0-----0--------|

e|--------------------------------------|
B|--------------------------------------|
G|--------------------------------------|
D|--4-----4-----4--5--3-----3-----3--5--|
A|--2-2-2-2-2-2-2--3--1-1-1-1-1-1-1--3--|
E|--------------------------------------|

e|-----------------------------|
B|-----------------------------|
G|-----------------------------|
D|-----------------------------|
A|--5--------------------------|
E|--3--3-3-3-3-3-3-3-3--5-6-5--|

e|-----------------------------|
B|-----------------------------|
G|-----------------------------|
D|-----------------------------|
A|--8--------------------------|
E|--6--6-6-6-6-6-6-6-6--8-9-8--|

e|------------|
B|------------|
G|------------|
D|------------|
A|--5----4----|
E|--3----2----|

e|-------------------------------------------------------------|
B|-------------------------------------------------------------|
G|-------------------------------------------------------------|
D|--------------87-------------87-------------87-9-9-8-8-------|
A|--------98---65-------98---65-------98---65-7-7-6-6----------|
E|--0-0-0-76-0-----0-0-0-76-0-----0-0-0-76-0-------------------|

e|------------|
B|------------|
G|------------|
D|------------|
A|--8----5-2--|
E|--6----3-0--|

well, my frist tab man, so maybe the tab had some errors
nvm, cya.

"keep fucking supporting metal!" - corpsegrinder -
Tap to rate this tab
 
# A B C D E F G H I J K L M N O P Q R S T U V W X Y Z