Song name
# A B C D E F G H I J K L M N O P Q R S T U V W X Y Z

Sepultura - Rumours tab

#----------------------------------PLEASE NOTE---------------------------------#
#This file is the author's own work and represents their interpretation of the #
#song. You may only use this file for private study, scholarship, or research. #
#------------------------------------------------------------------------------#

RUMOURS
As recorded by Sepultra

Transcribed by Mike da Man
	



Gtr I (C F A# D# G C) - 'Gtr. 1'
Gtr II (C F A# D# G C) - 'Gtr. 2'

  Q=145
 4/4
  Gtrs I, II
  W          W          E E E E E E E E   E E E E E E E E
|----------|----------|-----------------|------------------|
|----------|----------|-----------------|------------------|
|----------|----------|-------3-3-------|-------3-3-3-3-3--|
|----------|----------|-5-5-5-3-3-2-2-2-|-5-5-5-3-3-3-3-3--|
|----------|----------|-5-5-5-1-1-2-2-2-|-5-5-5-1-1-1-1-1--|
|----------|----------|-3-3-3-----0-0-0-|-3-3-3------------|


  E E E E E E E E   E E E E S S S S S S S S     Q.   Q.   Q    +H.      Q   4x
|-----------------|-------------------------||---------------|--------------||
|-----------------|-------------------------||o--------------|-------------o||
|-------3-3-------|-------3-----------------||---------------|--------------||
|-5-5-5-3-3-2-2-2-|-5-5-5-3-3---3---3---3---||--2----5----8--|-(8)------8---||
|-5-5-5-1-1-2-2-2-|-5-5-5-1-3---3---3---3---||o-2----5----8--|-(8)------8--o||
|-3-3-3-----0-0-0-|-3-3-3---1---1---1---1---||--0----3----6--|-(6)------6---||


  Q   Q  H      H    Q  E E   W          W
|-x-----------|---------x-x-|----------|------|
|-x-----------|---------x-x-|----------|------|
|-x-----------|---------x-x-|----------|------|
|-x\----------|---------x-x-|----------|------|
|-x\----------|---------x-x-|----------|------|
|-x-----------|---------x-x-|----------|------|


    S S S S S S S S S S S S S S S S   S S S S S S S S S S S S S S S S   4x
||----------------------------------|-----------------------------------||
||o---------------------------------|----------------------------------o||
||--------------3---3---------------|-----------------------------------||
||--5---5---5---3---3---2---2---2---|-2---2---2---2---2---2---2---2-----||
||o-5---5---5---1---1---2---2---2---|-2---2---2---2---2---2---2---2----o||
||--3---3---3-----------0---0---0---|-0---0---0---0---0---0---0---0-----||


    Q.   Q.   Q    +H.      Q   4x     S S S S S S S S S S S S S S S S
||---------------|--------------||-||-----------------------------------|
||o--------------|-------------o||-||o----------------------------------|
||---------------|--------------||-||--------------3---3----------------|
||--2----5----8--|-(8)------8---||-||--5---5---5---3---3---2---2---2----|
||o-2----5----8--|-(8)------8--o||-||o-5---5---5---1---1---2---2---2----|
||--0----3----6--|-(6)------6---||-||--3---3---3-----------0---0---0----|


                                     3/
  S S S S S S S S S S S S S S S S  4x
|----------------------------------||-|
|---------------------------------o||-|
|----------------------------------||-|
|-2---2---2---2---2---2---2---2----||-|
|-2---2---2---2---2---2---2---2---o||-|
|-0---0---0---0---0---0---0---0----||-|


 4
    W       4x     S S S S S S S S S S S S    4x
||----------||-||-----------------------------||
||o--------o||-||o---------------------------o||
||----------||-||-----------------------------||
||----------||-||--2---2----------------------||
||o--------o||-||o-2---2---------------------o||
||----------||-||--0---0---0---0---0---0------||


   6/4
    Gtr II
    S S S S S S E W         4x     W                  +H      4x
||--------------------------||-||-----------------------------||
||o------------------------o||-||o---------------------------o||
||--------------------------||-||-----------------------------||
||--------------------------||-||--9------------------(9)-----||
||o------------------------o||-||o-7------------------(7)----o||
||--0---0---0---------------||-||--0------------------(0)-----||
|
|   Gtr I
|   S S S S S S E W         4x     S S S S S S E W            4x
||--------------------------||-||-----------------------------||
||o------------------------o||-||o---------------------------o||
||--------------------------||-||-----------------------------||
||--------------------------||-||-----------------------------||
||o------------------------o||-||o---------------------------o||
||--0---0---0---------------||-||--0---0---0------------------||


 4/4
   S  S  S  S  S  S  S  S  S  S  S  S  S  S  S  S
|-24-24-24-24-24-24-24-24-24-24-24-24-24-24-24-24-|
|-------------------------------------------------|
|-20-20-20-20-20-20-20-20-20-20-20-20-20-20-20-20-|
|-------------------------------------------------|
|-------------------------------------------------|
|-------------------------------------------------|
|
|  S  S  S  S  S  S  S  S  S  S  S  S  S  S  S  S
|-------------------------------------------------|
|-------------------------------------------------|
|--------------------3-----3----------------------|
|--5-----5-----5-----3-----3-----2-----2-----2----|
|--5-----5-----5-----1-----1-----2-----2-----2----|
|--3-----3-----3-----------------0-----0-----0----|


   S  S  S  S  S  S  S  S  S  S  S  S  S  S  S  S
|-24-24-24-24-24-24-24-24-24-24-24-24-24-24-24-24--|
|--------------------------------------------------|
|-20-20-20-20-20-20-20-20-20-20-20-20-20-20-20-20--|
|--------------------------------------------------|
|--------------------------------------------------|
|--------------------------------------------------|
|
|  S  S  S  S  S  S  S  S  S  S  S  S  S  S  S  S
|--------------------------------------------------|
|--------------------------------------------------|
|--------------------------------------------------|
|--2-----2-----2-----2-----2-----2-----2-----2-----|
|--2-----2-----2-----2-----2-----2-----2-----2-----|
|--0-----0-----0-----0-----0-----0-----0-----0-----|


   S  S  S  S  S  S  S  S  S  S  S  S  S  S  S  S
|-24-24-24-24-24-24-24-24-24-24-24-24-24-24-24-24-|
|-------------------------------------------------|
|-20-20-20-20-20-20-20-20-20-20-20-20-20-20-20-20-|
|-------------------------------------------------|
|-------------------------------------------------|
|-------------------------------------------------|
|
|  S  S  S  S  S  S  S  S  S  S  S  S  S  S  S  S
|-------------------------------------------------|
|-------------------------------------------------|
|--------------------3-----3----------------------|
|--5-----5-----5-----3-----3-----2-----2-----2----|
|--5-----5-----5-----1-----1-----2-----2-----2----|
|--3-----3-----3-----------------0-----0-----0----|


   S  S  S  S  S  S  S  S  S  S  S  S  S  S  S  S
|-24-24-24-24-24-24-24-24-24-24-24-24-24-24-24-24-|
|-------------------------------------------------|
|-20-20-20-20-20-20-20-20-20-20-20-20-20-20-20-20-|
|-------------------------------------------------|
|-------------------------------------------------|
|-------------------------------------------------|
|
|  S  S  S  S  S  S  S  S  S  S  S  S  S  S  S  S
|-------------------------------------------------|
|-------------------------------------------------|
|-------------------------------------------------|
|--2-----2-----2-----2-----2-----2-----2-----2----|
|--2-----2-----2-----2-----2-----2-----2-----2----|
|--0-----0-----0-----0-----0-----0-----0-----0----|


   Q.              Q.              Q
|-24--------------24--------------24-----------|
|----------------------------------------------|
|-20b26-----------20b26-----------20b26========|
|----------------------------------------------|
|----------------------------------------------|
|----------------------------------------------|
|
|  S    S S S S S  S    S S S S S  S     S S S
|----------------------------------------------|
|----------------------------------------------|
|------------------3------3--------------------|
|--5------5---5----3------3---2----2-------2---|
|--5------5---5----1------1---2----2-------2---|
|--3------3---3---------------0----0-------0---|


   +E      Q.              H
|-(24)----24--------------24------------------|
|---------------------------------------------|
|-(20)r---20b26-----------20b26---------------|
|---------------------------------------------|
|---------------------------------------------|
|---------------------------------------------|
|
|   S   S  S    S S S S S  S    S S S S S S S
|---------------------------------------------|
|---------------------------------------------|
|---------------------------------------------|
|---2------2------2---2----2------2---2---2---|
|---2------2------2---2----2------2---2---2---|
|---0------0------0---0----0------0---0---0---|


   ~~~~~~~~~~~~~~~~~~~~~~~~~~~~~~~~~~~~~~
   E    Q        E    Q        E    E
|-24---24-------24---24-------24---24---|
|-23---23-------23---23-------23---23---|
|---------------------------------------|
|---------------------------------------|
|---------------------------------------|
|---------------------------------------|
|
|  S S  S S S S  S S  S S S S  S S  S S
|---------------------------------------|
|---------------------------------------|
|----------------3----3-----------------|
|--5----5---5----3----3---2----2----2---|
|--5----5---5----1----1---2----2----2---|
|--3----3---3-------------0----0----0---|


 ~~~~~~~~~~~~~~~~~~~~~~~~~~~~~~~
   +E     E    Q        E    Q.
|-(24)---24---24-------24---24------------|
|-(23)---23---23-------23---23------------|
|-----------------------------------------|
|-----------------------------------------|
|-----------------------------------------|
|-----------------------------------------|
|
|   S  S  S S  S S S S  S S  S  S S S S S
|-----------------------------------------|
|-----------------------------------------|
|-----------------------------------------|
|---2-----2----2---2----2----2----2---2---|
|---2-----2----2---2----2----2----2---2---|
|---0-----0----0---0----0----0----0---0---|


    Gtrs I, II
    Q.   Q.   Q    +H.      Q   4x     S S S S S S S S S S S S S S S S
||---------------|--------------||-||-----------------------------------|
||o--------------|-------------o||-||o----------------------------------|
||---------------|--------------||-||--------------3---3----------------|
||--2----5----8--|-(8)------8---||-||--5---5---5---3---3---2---2---2----|
||o-2----5----8--|-(8)------8--o||-||o-5---5---5---1---1---2---2---2----|
||--0----3----6--|-(6)------6---||-||--3---3---3-----------0---0---0----|


                                     6/4
  S S S S S S S S S S S S S S S S  4x     W        +H      3x
|----------------------------------||-||-------------------||
|---------------------------------o||-||o-----------------o||
|----------------------------------||-||--9--------(9)-----||
|-2---2---2---2---2---2---2---2----||-||-------------------||
|-2---2---2---2---2---2---2---2---o||-||o-7--------(7)----o||
|-0---0---0---0---0---0---0---0----||-||-------------------||


     W         +H      4x     S S S S E S S S S E S S S S E S S S S E  4x
||---------------------||-||-------------------------------------------||
||o-------------------o||-||o-----------------------------------------o||
||--13--------(13)-----||-||-------------------------------------------||
||---------------------||-||--2---2-----2---2-----2---2-----2---2------||
||o-11--------(11)----o||-||o-2---2-----2---2-----2---2-----2---2-----o||
||---------------------||-||--0---0-----0---0-----0---0-----0---0------||


                                             4/4
  S S S S E S S S S E S S S S E S S S S S S   S S E Q  H
|-------------------------------------------|---------------*|
|-------------------------------------------|---------------*|
|-------------------------------------------|---------------*|
|-2---2-----2---2-----2---2-----2---2---2---|-2-------------*|
|-2---2-----2---2-----2---2-----2---2---2---|-2-------------*|
|-0---0-----0---0-----0---0-----0---0---0---|-0-------------*|



Duration Legend
---------------
W - whole; H - half; Q - quarter; E - 8th; S - 16th; T - 32nd; X - 64th; a - acciaccatura
+ - note tied to previous; . - note dotted; .. - note double dotted
Uncapitalized letters represent notes that are staccato (1/2 duration)
Irregular groupings are notated above the duration line
Duration letters will always appear directly above the note/fret number it represents the
duration for.  Duration letters with no fret number below them represent rests.  Multi-
bar rests are notated in the form Wxn, where n is the number of bars to rest for.  Low
melody durations appear below the staff

Tablature Legend
----------------
 h   - hammer-on
 p   - pull-off
 b   - bend
 pb  - pre-bend
 r   - bend release (if no number after the r, then release immediately)
 /\  - slide into or out of (from/to "nowhere")
 s   - legato slide
 S   - shift slide
 - natural harmonic
[n]  - artificial harmonic
n(n) - tapped harmonic
 ~   - vibrato
 tr  - trill
 T   - tap
 TP  - trem. picking
 PM  - palm muting
\n/  - tremolo bar dip; n = amount to dip
 \n  - tremolo bar down
 n/  - tremolo bar up
/n\  - tremolo bar inverted dip
 =   - hold bend; also acts as connecting device for hammers/pulls
 <> - volume swell (louder/softer)
 x   - on rhythm slash represents muted slash
 o   - on rhythm slash represents single note slash

Misc Legend
-----------
 |  - bar
||  - double bar
||o - repeat start
o|| - repeat end
*|  - double bar (ending)
 :  - bar (freetime)
 $  - Segno
 &  - Coda
Tempo markers -  = BPM(8/16=s8/s16), where s8 = swing 8ths, s16 = swing 16ths

Tap to rate this tab
# A B C D E F G H I J K L M N O P Q R S T U V W X Y Z