Song name
# A B C D E F G H I J K L M N O P Q R S T U V W X Y Z

Sepultura - Drug Me tab

Band:  Sepultura
Album: The Roots of Sepultura
Song:  Drug Me

Copyright (c)  (Road Runner) (1997)
Version 1.0 - (24/02/07)

Transcribed By: Steve
Email:          stephen.elvidge1@ntlworld.com


.  - palm mute           /  - slide up to
\  - slide down to       ~  - vibrato
h  - hammer on           b  - Bend
p  - pull off            Suffixes for bend
t  - tap                 f  - full bend    h - half bend
ph - pinched harmonic    q  - quarter bend t - tap bend
*  - see comment         ^  - Hold bend    r release bend
x  - Stuccatto           ~  - vibrato bend
,  - slight palm mute    () - ghost note, sustained note
"  - tremolo note        <> - harmonic
pb - pre bend

Tuning E A D G B E


 Verse

  [------------PM------------]          [-PM-]       [-PM-]
|------------------------------------------------------------|
|------------------------------------------------------------|
|------------------------------------------------------------|
|-3-3-3-3-3-3-3-3-3-3-3-3-3-3--3--3--3--------3--3--3--------|
|-1-1-1-1-1-1-1-1-1-1-1-1-1-1--1--1--1--------1--1--1--------|
|---------------------------------------1-111---------1-111--| Rpt


 Guitar 1
 [--PM--]          [--PM--]
[---------------------------------------------------|
[---------------------------------------------------|
[---------------------------------------------------|
[---------22222222---------66666666-8\6/8/9-8\6/8/9-|
[-3-3-3-3----------3-3-3-3----------6\4/6/7-6\4/6/7-|
[-1-1-1-1----------1-1-1-1--------------------------|
[Guitar 2
[[--PM--]          [--PM--]
[---------------------------------------------------|
[---------------------------------------------------|
[---------------------------------------------------|
[-----------------------------------8---------------|
[-3-3-3-3----------3-3-3-3----------6---------------|
[-1-1-1-1----------1-1-1-1----------6---------------|



 Chorus


Guitar 1
[----------|
[----------|
[----------|
[-8\6/8/9--|
[-6\4/6/7--|
[----------|
[Guitar 2
[----------|
[----------|
[----------|
[-8\6/8/9--|
[-6\4/6/7--|
[-6\4/6/7--| Rpt 8 X



Guitar 1
[----------|
[----------|
[----------|
[-8\6/8/9--|
[-6\4/6/7--|
[----------|
[Guitar 2
[----------|
[----------|
[----------|
[-8\6/8/9--|
[-6\4/6/7--|
[-6\4/6/7--| Rpt 2 X faster


 Verse

 

 [------------------------------PM------------------------------]
|-----------------------------------------------------------------|
|-----------------------------------------------------------------|
|-----------------------------------------------------------------|
|-----------------------------------------------------------------|
|-6-6-6-6-6-6-6-6-6-6-6-6-6-6-6----------6---4-----------6---4----|
|-4-4-4-4-4-4-4-4-4-4-4-4-4-4-4--4-444-7---7---5-4-444-7---7---5--| Rpt

|----------|
|----------|
|----------|
|-8\6/8/9--|
|-6\4/6/7--|
|-6\4/6/7--| Rpt 2

 Rpt Chorus

 Guitar 1
 [--PM--]          [--PM--]
[-------------------------------------------------------------|
[-------------------------------------------------------------|
[-------------------------------------------------------------|
[---------22222222--------/66666666--------/9999999999999999--|
[-3-3-3-3----------3-3-3-3----------3-3-3-3-------------------|
[-1-1-1-1----------1-1-1-1----------1-1-1-1-------------------|
[Guitar 2
[[--PM--]          [--PM--]
[-------------------------------------------------------------|
[-------------------------------------------------------------|
[-------------------------------------------------------------|
[----------------------------------------------------------9\-|
[-3-3-3-3----------3-3-3-3----------3-3-3-3-------------------|
[-1-1-1-1----------1-1-1-1----------1-1-1-1-------------------|

 Guitar 1
[-------------------------------|
[-0-----------(0)---------------|
[-11----------(11)--------------|
[-------------------------------|
[-------------------------------|
[-------------------------------|
[Guitar 2
[-------------------------------|
[-------------------------------|
[-------------------------------|
[-9-----------------------------|
[-------------------------------|
[-------------------------------|

 Guitar solo

|-9---9---9---9---9--/11--11----|
|-12b-12b-12b-12b-12b/14b-14b\--|
|-------------------------------|
|-------------------------------|
|-------------------------------|
|-------------------------------|

        [------PM-----]
|------------------------|
|------------------------|
|------------------------|
|-6--6-------------------|
|-4--4--4-4-4-4-4-4-4-4--|
|------------------------| Rpt 6 X

            [------PM-----]
|----------------------------|
|----------------------------|
|----------------------------|
|-12-\11\9-------------------|
|-10-\9-\7--4-4-4-4-4-4-4-4--|
|----------------------------|

 Verse

  [---------------------------PM---------------------------------]         
|-----------------------------------------------------------------|
|-----------------------------------------------------------------|
|-----------------------------------------------------------------|
|-3-3-3-3-3-3-3-3-3-3-3-3-3-3-----------3---1-------------3---1---|
|-1-1-1-1-1-1-1-1-1-1-1-1-1-1--1-1111-4---4---2--1-1111-4---4---2-|
|-----------------------------------------------------------------| Rpt

 Guitar 1
 [--PM--]          [--PM--]
[----------------------------------------------------|
[----------------------------------------------------|
[----------------------------------------------------|
[---------22222222--------/66666666--------/99999999-|
[-3-3-3-3----------3-3-3-3----------3-3-3-3----------|
[-1-1-1-1----------1-1-1-1----------1-1-1-1----------|
[Guitar 2
[[--PM--]          [--PM--]
[----------------------------------------------------|
[----------------------------------------------------|
[----------------------------------------------------|
[----------------------------------------------------|
[-3-3-3-3----------3-3-3-3----------3-3-3-3----------|
[-1-1-1-1----------1-1-1-1----------1-1-1-1----------|

 Rpt Chorus

 Guitar 1
[-----------------------------------------------------------------------|
[-----------------------------------------------------------------------|
[-8-----------------------(8)---------------------------------------8\--|
[-8-----------------------(8)---------------------------------------8\--|
[-6-----------------------(6)----------to feedback------------------6\--|
[-6-----------------------(6)---------------------------------------6\--|
[Guitar 2
[                ~~~~~
[-----------------------------------------------------------------------|
[-----------------------------------------------------------------------|
[-8-----------------------(8)---------------------------------------8\--|
[-8------------6b---------(8)---------------------------------------8\--|
[-6-----------------------(6)---------------------------------------6\--|
[-6-----------------------(6)---------------------------------------6\--|




END

Tap to rate this tab
# A B C D E F G H I J K L M N O P Q R S T U V W X Y Z