Song name
# A B C D E F G H I J K L M N O P Q R S T U V W X Y Z

Sepultura - Dead Embryonic Cells tab

#----------------------------------PLEASE NOTE---------------------------------#
#This file is the author's own work and represents their interpretation of the #
#song. You may only use this file for private study, scholarship, or research. #
#------------------------------------------------------------------------------#

DEAD EMBRYONIC CELLS
As recorded by Sepultura
(From the 1991 Album ARISE)

Transcribed by Jeff Jacobson, Paul Pappas, and Steve Gorenberg
	

Words by Max Cavalera and Andreas Kisser Music by Sepultura

F#5
2 4 x x x x
	
G5
3 5 x x x x
	
C5
x 3 5 x x x
	
F#5IV
x x 4 6 x x

C#5
x 4 6 x x x
	
Bb5
x 1 3 x x x
	
F5
1 3 x x x x
	
A5
5 7 x x x x

G#5
4 6 x x x x
	
B5
x 2 4 x x x
	
A#5
x 1 3 x x x

Gtr I (E A D G B E) - 'Untitled'
Gtr II (E A D G B E) - 'Untitled'
Gtr III (E A D G B E) - 'Untitled'

 Intro
  Fast Rock Q=212
                     N.C.      Bb5      F#5
 4/4
  Gtrs I, II
                     PM----|      PM----------|
  W          H    Q  S S S S   Q  S S E E E E E
|----------|-----------------|------------------|
|----------|-----------------|------------------|
|----------|-----------------|------------------|
|----------|-----------------|-3----------------|
|----------|-----------------|-1--------4---4---|
|----------|---------0-0-0-0-|----0-0-0-2-0-2-0-|


  Bb5                     Bb5      F#5 F#5   Bb5           BbA5
     PM---------------|      PM----------|      PM------|
  Q  S S S S Q  S S S S   Q  S S E E E E E   Q  S S S S Q  E E
|-----------------------|------------------|-------------------||
|-----------------------|------------------|-------------------||
|-----------------------|------------------|-------------------||
|-3---------------------|-3----------------|-3-------------3-2-||
|-1---------------------|-1--------4---4---|-1-------------1-0-||
|----0-0-0-0-0--0-0-0-0-|----0-0-0-2-0-2-0-|----0-0-0-0-0------||


    Bb5            F5    E5    BbA5    Bb5
                                      6/4
         PM----|     PM|   PM|
    H    E E E E   E E E E E E E E  4x W.
||---------------|------------------||-------||
||o--------------|-----------------o||-------||
||---------------|------------------||-------||
||--3------------|-------------3-2--||-3-----||
||o-1------------|-3-----2-----1-0-o||-1-----||
||-------0-0-0-0-|-1-0-0-0-0-0------||-------||


            F5  BbA5  Bb5                  F5
   4/4
    PM----|   PM                   PM----|   PM--|
    E E E E E E E E   W         3x E E E E E E E E
||------------------|-----------||-----------------|
||o-----------------|----------o||-----------------|
||------------------|-----------||-----------------|
||--------------3-2-|-3---------||-----------------|
||o---------3---1-0-|-1--------o||---------3-------|
||--0-0-0-0-1-0-----|-----------||-0-0-0-0-1-0-0-0-|


  PM----------------|             PM--|   PM|   PM
  E E E E E E E E   E E Q  H      E E E E E E E E   E E Q  H
|-----------------|-------------|-----------------|-------------||
|-----------------|-------------|-----------------|-------------||
|-----------------|-------------|-----------------|-------------||
|-----------------|-------------|-----------------|-------------||
|-------3-----3---|-3-----------|-------3-----3---|-3-----------||
|-0-0-0-1-0-0-1-0-|-1-----------|-0-0-0-1-0-0-1-0-|-1-----------||


          F5    E5              F5    E5            F5    E5            F5
  Gtr III
                     \2.5
  W                 +W                    +W                  +W
|-----------------|---------------------|-------------------|------------------|
|-----------------|---------------------|-------------------|------------------|
|-----------------|---------------------|-------------------|------------------|
|-----------------|---------------------|-------------------|------------------|
|-----------------|---------------------|-------------------|------------------|
|-0---------------|-(0)-----------------|-(0)---------------|-(0)--------------|
|
| Gtrs I, II
| PM----|   PM|      PM     PM|   PM|      PM   PM|   PM|      PM   PM|
| E E E E E E E E    E    E E E E E E E    E  E E E E E E E    E  E E E E E Q
|-----------------|---------------------|-------------------|------------------|
|-----------------|---------------------|-------------------|------------------|
|-----------------|---------------------|-------------------|------------------|
|-----------------|---------------------|-------------------|------------------|
|---------3-----2-|-------2-----3-----2-|-----2-----3-----2-|-----2-----3---3--|
|-0-0-0-0-1-0-0-0-|--0----0-0-0-1-0-0-0-|--0--0-0-0-1-0-0-0-|--0--0-0-0-1-0-1--|


          F5    E5            F5    E5
  W                 +H.           E E
|-----------------|-------------------|
|-8---------------|-(8)---------------|
|-9---------------|-(9)-----------9s8-|
|-----------------|-------------------|
|-----------------|-------------------|
|-----------------|-------------------|
|
| PM----|   PM|      PM   PM|   PM|
| E E E E E E E E    E  E E E E E E E
|-----------------|-------------------|
|-----------------|-------------------|
|-----------------|-------------------|
|-----------------|-------------------|
|---------3-----2-|-----2-----3-----2-|
|-0-0-0-0-1-0-0-0-|--0--0-0-0-1-0-0-0-|


             F5      E5            F5
  Q.      E  +H          +W
|----------------------|------------------|
|---------7--(7)-------|-(7)--------------|
|-8------(8)-(8)-------|-(8)--------------|
|----------------------|------------------|
|----------------------|------------------|
|----------------------|------------------|
|
| PM   PM|       PM|      PM   PM|
| E  E E  E   E  E E E    E  E E E E E Q
|----------------------|------------------|
|----------------------|------------------|
|----------------------|------------------|
|----------------------|------------------|
|----2--------3------2-|-----2-----3---3--|
|-0--0-0--0---1--0-0-0-|--0--0-0-0-1-0-1--|


          F5    E5            F5    E5           F5      E5            F5
  W                 +H.           E E   Q.     E +H          +W
|-----------------|-------------------|--------------------|------------------|
|-8---------------|-(8)---------------|--------7-(7)-------|-(7)--------------|
|-9---------------|-(9)-----------9s8-|-8------8-(8)-------|-(8)--------------|
|-----------------|-------------------|--------------------|------------------|
|-----------------|-------------------|--------------------|------------------|
|-----------------|-------------------|--------------------|------------------|
|
| PM----|   PM|      PM   PM|   PM|     PM   PM|     PM|      PM   PM|
| E E E E E E E E    E  E E E E E E E   E  E E E  E  E E E    E  E E E E E Q
|-----------------|-------------------|--------------------|------------------|
|-----------------|-------------------|--------------------|------------------|
|-----------------|-------------------|--------------------|------------------|
|-----------------|-------------------|--------------------|------------------|
|---------3-----2-|-----2-----3-----2-|----2------3------2-|-----2-----3---3--|
|-0-0-0-0-1-0-0-0-|--0--0-0-0-1-0-0-0-|-0--0-0-0--1--0-0-0-|--0--0-0-0-1-0-1--|


                 F5       E5             F5     E5
  a  Q.       E   +H           +H.            E  E
|---------------------------|----------------------|
|------------20--(20)-------|-(20)-----------------|
|-8s21------(21)-(21)-------|-(21)-----------21s20-|
|---------------------------|----------------------|
|---------------------------|----------------------|
|---------------------------|----------------------|
|
|    PM-----|         PM|       PM   PM|   PM|
|    E  E E   E    E  E E E     E  E E E E E  E  E
|---------------------------|----------------------|
|---------------------------|----------------------|
|---------------------------|----------------------|
|---------------------------|----------------------|
|------------------3------2-|------2-----3-------2-|
|----0--0-0---0----1--0-0-0-|---0--0-0-0-1-0--0--0-|


               F5       E5             F5
   Q.       E   +H           +W
|-------------------------|-------------------|
|----------19--(19)-------|-(19)--------------|
|-20------(20)-(20)-------|-(20)--------------|
|-------------------------|-------------------|
|-------------------------|-------------------|
|-------------------------|-------------------|
|
|  PM   PM|         PM|       PM   PM|
|  E  E E   E    E  E E E     E  E E E E E Q
|-------------------------|-------------------|
|-------------------------|-------------------|
|-------------------------|-------------------|
|-------------------------|-------------------|
|-----2----------3------2-|------2-----3---3--|
|--0--0-0---0----1--0-0-0-|---0--0-0-0-1-0-1--|


                 F5       E5             F5     E5
  a  Q.       E   +H           +H.            E  E
|---------------------------|----------------------|
|------------20--(20)-------|-(20)-----------------|
|-8s21------(21)-(21)-------|-(21)-----------21s20-|
|---------------------------|----------------------|
|---------------------------|----------------------|
|---------------------------|----------------------|
|
|    PM-----|         PM|       PM   PM|   PM|
|    E  E E   E    E  E E E     E  E E E E E  E  E
|---------------------------|----------------------|
|---------------------------|----------------------|
|---------------------------|----------------------|
|---------------------------|----------------------|
|------------------3------2-|------2-----3-------2-|
|----0--0-0---0----1--0-0-0-|---0--0-0-0-1-0--0--0-|


               F5       E5                 F5
   Q.       E   +Q.      E       +H         +H
|-----------------------------|-----------------------||
|----------19--(19)-----------|-----------------------||
|-20------(20)-(20)-----20b21-|-(20)-------(20)\------||
|-----------------------------|-----------------------||
|-----------------------------|-----------------------||
|-----------------------------|-----------------------||
|
|  PM   PM|         PM|           PM   PM|
|  E  E E   E    E  E E  E        E  E E E   E   E Q
|-----------------------------|-----------------------||
|-----------------------------|-----------------------||
|-----------------------------|-----------------------||
|-----------------------------|-----------------------||
|-----2----------3-------2----|------2-------3-----3--||
|--0--0-0---0----1--0-0--0----|---0--0-0-0---1---0-1--||


            F5    G#5          G5       N.C.
    PM----|   PM
    E E E E E E E E   +H     E Q.    4x H    +E  E E E
||------------------|----------------||----------------|
||o-----------------|---------------o||----------------|
||------------------|----------------||----------------|
||------------------|----------------||----------------|
||o---------3---3-6-|-(6)----6-5----o||----------6-5---|
||--0-0-0-0-1-0-1-4-|-(4)----4-3-----||-0----(0)-----6-|


  ~~~~~~~~~
  H    +E  E E E   H    +E  E E E   H.      Q
|----------------|----------------|-------------||
|----------------|----------------|-------------||
|----------------|----------------|-------------||
|----------------|----------------|-------------||
|-5----(5)-5-4---|-4----(4)-4-3---|-------------||
|--------------5-|--------------4-|-0-------x\--||


   1st Verse
    E5    F5    G5G#5 G5            G#5 G5            G#5 F5
      PM|   PM|         PM------|         PM------|         PM----------|
    E E E E E E E E   E E E E E E E E   E E E E E E E E   E E E E E E E E   4x
||------------------|-----------------|-----------------|-------------------||
||o-----------------|-----------------|-----------------|------------------o||
||------------------|-----------------|-----------------|-------------------||
||------------------|-----------------|-----------------|-------------------||
||o-2-----3-----5s6-|-5-----------5s6-|-5-----------5s6S|=3----------------o||
||--0-0-0-1-0-0-3s4-|-3-0-0-0-0-0-3s4-|-3-0-0-0-0-0-3s4S|=1-0-0-0-0-0-0-0---||


    N.C.
    PM------|     PM    PM----------------------|     PM----------------|
    E E E E E E E E   E E E E E E E E   E E E E E E E E   E E E E E E E E
||------------------|-----------------|-----------------|-------------------||
||o-----------------|-----------------|-----------------|------------------o||
||------------------|-----------------|-----------------|-------------------||
||------------4-----|-----------------|-----------4-----|-------------------||
||o-------------3---|-3---------------|-------------3---|------------------o||
||--0-2-2-2-2-----2-|---2-2-2-2-2-2-2-|-0-2-2-2-2-----2-|-0-0-0-0-0-0-0-0---||


                                       1.                 2.
    F#5                 G5   C5                  F#5IV    C5   G5C#5
                    PM|
    W          H    E E Q    W          +H     E Q.       H    E Q  E
||-----------|-------------|----------|----------------||---------------||
||o----------|-------------|----------|---------------o||---------------||
||-----------|-------------|----------|----------6-----||---------------||
||-----------|-------------|-5--------|-(5)----x-4-----||-5------6--6---||
||o-4--------|-4--------5--|-3--------|-(3)----x------o||-3----5-4--4---||
||--2--------|-2----0-2-3--|----------|----------------||------3--------||


    N.C.            Bb5             F#5           G5C#5
    S S S S S S S S E S S S S S S   E S S S S S S E Q  E   4x
||--------------------------------|------------------------||
||o-------------------------------|-----------------------o||
||--------------------------------|------------------------||
||------------------3-------------|-----------------6--6---||
||o-----------------1-------------|-4-------------5-4--4--o||
||--0-0-0-0-0-0-0-0---0-0-0-0-0-0-|-2-0-0-0-0-0-0-3--------||


  F#5                                  F5
  Gtrs I, II
  W                 +W                 W          +W
  |                  |                 |           |
  /                  /                 /           /

  Gtr III
  H    E. S S S E    H    E. S S S E   W          +W
|-----------------|------------------|----------|--------|
|-----------------|------------------|----------|--------|
|-----------------|------------------|-5--------|-(5)----|
|-4----5--4h5p4S2-|--4----5--4h5p4S2-|----------|--------|
|-----------------|------------------|----------|--------|
|-----------------|------------------|----------|--------|


  F#5                                F5
  W                 +W               W
  |                  |               |
  /                  /               /

  H    E. S S S E    H    E Q.     a H..       a E
|-----------------|--------------|------------------|
|-----------------|--------------|------------------|
|-----------------|--------------|------------------|
|-4----5--4h5p4S2-|--4----4s5----|-5s7---------7s9s=|
|-----------------|--------------|------------------|
|-----------------|--------------|------------------|


                            F5    G#5          G5
  +W                W                  W
   |
   /

                  Gtrs I, II
   ~~~~
   H..       +E     E E E E E E E E   +H     E Q.
|-----------------|-----------------|---------------||
|-----------------|-----------------|---------------||
|-----------------|-----------------|---------------||
|--5---------(5)\-|-----------------|---------------||
|-----------------|---------3---3-6-|-(6)----6-5----||
|-----------------|-0-0-0-0-1-0-1-4-|-(4)----4-3----||


 2nd Verse
  E5    F5    G5G#5 G5            G#5 G5            G#5 F5
    PM|   PM|         PM------|         PM------|         PM----------|
  E E E E E E E E   E E E E E E E E   E E E E E E E E   E E E E E E E E
|-----------------|-----------------|-----------------|-----------------|
|-----------------|-----------------|-----------------|-----------------|
|-----------------|-----------------|-----------------|-----------------|
|-----------------|-----------------|-----------------|-----------------|
|-2-----3-----5s6-|-5-----------5s6-|-5-----------5s6S|=3---------------|
|-0-0-0-1-0-0-3s4-|-3-0-0-0-0-0-3s4-|-3-0-0-0-0-0-3s4S|=1-0-0-0-0-0-0-0-|


  E5    F5    G5G#5 G5            G#5 G5            G#5 F5          BbA5
    PM|   PM|         PM------|         PM------|         PM------|
  E E E E E E E E   E E E E E E E E   E E E E E E E E   E E E E E E E E
|-----------------|-----------------|-----------------|-----------------|
|-----------------|-----------------|-----------------|-----------------|
|-----------------|-----------------|-----------------|-----------------|
|-----------------|-----------------|-----------------|-------------3-2-|
|-2-----3-----5s6-|-5-----------5s6-|-5-----------5s6S|=3-----------1-0-|
|-0-0-0-1-0-0-3s4-|-3-0-0-0-0-0-3s4-|-3-0-0-0-0-0-3s4S|=1-0-0-0-0-0-----|


 Chorus
  Bb5            F5    E5    BbA5  Bb5            F5    E5    BbA5
       PM----|     PM|   PM|            PM----|     PM|   PM|
  H    E E E E   E E E E E E E E   H    E E E E   E E E E E E E E
|--------------|-----------------|--------------|-----------------|
|--------------|-----------------|--------------|-----------------|
|--------------|-----------------|--------------|-----------------|
|-3------------|-------------3-2-|-3------------|-------------3-2-|
|-1------------|-3-----2-----1-0-|-1------------|-3-----2-----1-0-|
|------0-0-0-0-|-1-0-0-0-0-0-----|------0-0-0-0-|-1-0-0-0-0-0-----|


  Bb5            F5    E5    BbA5  Bb5    A5   G#5    G5
                                  2/4    4/4
       PM----|     PM|   PM|
  H    E E E E   E E E E E E E E   H      Q.   E +Q   Q
|--------------|-----------------|------|----------------||
|--------------|-----------------|------|----------------||
|--------------|-----------------|------|----------------||
|-3------------|-------------3-2-|-3----|----------------||
|-1------------|-3-----2-----1-0-|-1----|-7----6-(6)--5--||
|------0-0-0-0-|-1-0-0-0-0-0-----|------|-5----4-(4)--3--||


    F#5                        A#B5A#5    F#5
    Gtr II
    W                 +H       E E Q      W
    |                  |       | | |      |
    /                  /       / / /      /

    Gtr I
    PM|   PM  PM|      PM|   PM           PM|   PM  PM|
    E E E E E E E E    E E E E E E Q   3x E E E E E E E E
||------------------|------------------||-----------------|
||o-----------------|-----------------o||-----------------|
||------------------|------------------||-----------------|
||------4---------2-|------1---3s4-3---||-----4---------2-|
||o---------3-------|--------1-1s2-1--o||---------3-------|
||--2-2---2---2-2---|--2-2-------------||-2-2---2---2-2---|


           F5        N.C.                                            F5
  +H       Q  Q      W                               W
   |       |  |
   /       /  /

                 Gtrs I, II
                       PM--------|   PM----------------------------|
   E E E E Q  Q      E S S S S S S S S S S S S S S   S S S S S S S S Q  Q     4x
|----------------||--------------------------------|--------------------------||
|----------------||o-------------------------------|-------------------------o||
|----------------||--------------------------------|--------------------------||
|------1-0-------||--2-----------------------------|--------------------------||
|----------3--3--||o---------------3---------------|-----------------3--3----o||
|--2-2-----1--1--||----1-1-1-1-1-1---1-1-1-1-1-1-1-|-1-1-1-1-1-1-1-1-1--1-----||


    F#
    Gtr II
    S S S S S S S S S S S S S S S S
    | | | | | | | | | | | | | | | |
    o / / / / / / / / / / / / / / /

    Gtr I
    PM--|       PM      PM--|
    E   E   E   E   E   E   E   E
||----------------------------------|
||o---------------------------------|
||----------------------------------|
||----------4-------------------2---|
||o-----------------3---------------|
||--2---2-------2-------2---2-------|


                  A#B5A#5    F#
  S S S S S S S S E E Q      S S S S S S S S S S S S S S S S
  | | | | | | | | | | |      | | | | | | | | | | | | | | | |
  / / / / / / / / / / /      o / / / / / / / / / / / / / / /

  PM--|       PM             PM--|       PM      PM--|
  E   E   E   E   E E Q   3x E   E   E   E   E   E   E   E
|-------------------------||---------------------------------|
|------------------------o||---------------------------------|
|-------------------------||---------------------------------|
|---------1-------3s4-3---||---------4-------------------2---|
|-------------1---1s2-1--o||-----------------3---------------|
|-2---2-------------------||-2---2-------2-------2---2-------|


                  F5        F
  S S S S S S S S Q  Q      W
  | | | | | | | | |  |
  / / / / / / / / /  /

                        Gtrs I, II
                            PM-------------------------------
  E   E   E   E   Q  Q      S S S S S S S S S S S S S S S S
|-----------------------||----------------------------------|
|-----------------------||o---------------------------------|
|-----------------------||----------------------------------|
|---------1---0---------||----------------------------------|
|-----------------3--3--||o---------------------------------|
|-2---2-----------1--1--||--1-1-1-1-1-1-1-1-1-1-1-1-1-1-1-1-|


                  F5
  W
 ---------------|
  S S S S S S S S Q  Q
|--------------------------||
|-------------------------o||
|--------------------------||
|--------------------------||
|-----------------3--3----o||
|-1-1-1-1-1-1-1-1-1--1-----||


 Guitar Solo
  N.C.(E5)                                 (G5)                               (G#5)
  Gtr III
                                                                               TP
   H                   +H                   E        +E     +S       +S   +E   Q         S  S  S  S
|-22b24---------------(22)---------------|-22b24====(22)r==(22)b24==(22)r(22)-22\-------------15-15-|
|----------------------------------------|----------------------------------------------15-15-------|
|----------------------------------------|----------------------------------------------------------|
|----------------------------------------|----------------------------------------------------------|
|----------------------------------------|----------------------------------------------------------|
|----------------------------------------|----------------------------------------------------------|
|
| Gtrs I, II
|  PM----------------------------------------------------|                 PM---------|
|  S    S S S S S S S   S  S S S S S S S    S     S   S  S   E             E   S  S S S  E     E
|----------------------------------------|----------------------------------------------------------|
|----------------------------------------|----------------------------------------------------------|
|----------------------------------------|----------------------------------------------------------|
|----------------------------------------|----------------------------------------------------------|
|----------------------------------------|-------------------5---------------------------6----------|
|--0----0-0-0-0-0-0-0---0--0-0-0-0-0-0-0-|--3-----3---3--3-----------------3---4--4-4-4--------0----|


  (E5)
   |----3----|    |----3----|
   E    E    E    E    E    E    S  S  S  S  +S  S  E
|-19---19---19---19---15---15h==17p15----15-(15)-x-------|
|-------------------------------------17-----------15h===|
|--------------------------------------------------------|
|--------------------------------------------------------|
|--------------------------------------------------------|
|--------------------------------------------------------|
|
|  PM-------------------------------------------------|
|  S S    S    S  S S    S    S  S  S  S  S   S  S  S S
|--------------------------------------------------------|
|--------------------------------------------------------|
|--------------------------------------------------------|
|--------------------------------------------------------|
|--------------------------------------------------------|
|--0-0----0----0--0-0----0----0--0--0--0--0---0--0--0-0--|


  (G5)                      (G#5)
   |----3----|
   E    E    E    S  E    S  S  S  S  S  E  S  S
|------------------------------------------------|
|-17p==15---15-----------15-17p15----------15h17p|
|----------------15-16------------16-15-16-------|
|------------------------------------------------|
|------------------------------------------------|
|------------------------------------------------|
|
|  PM----------|       PM------------|
|  S S    S    S  E    E     S  S  S  S  E  E
|------------------------------------------------|
|------------------------------------------------|
|------------------------------------------------|
|------------------------------------------------|
|-----------------5----------------------6-------|
|--3-3----3----3-------3-----4--4--4--4-----0----|


  (E5)
   S  S  S  S  S  S  S  S  S  S  S  S  S  S  S  S
|--------------------------------------------------|
|-15----------15-15h17-------------15-17p15--------|
|----16-15-16----------16-16-15-16----------16s14--|
|--------------------------------------------------|
|--------------------------------------------------|
|--------------------------------------------------|
|
|  PM------------------------------------------|
|  S  S  S  S  S  S  S  S  S  S  S  S  S  S  S  S
|--------------------------------------------------|
|--------------------------------------------------|
|--------------------------------------------------|
|--------------------------------------------------|
|--------------------------------------------------|
|--0--0--0--0--0--0--0--0--0--0--0--0--0--0--0--0--|


  (G5)                (G#5)
   S  S  E    S  S  E  E    Q      E
|------------------------------------|
|------------------------------------|
|-14-12-14---------------------------|
|------------12-12-14------12--------|
|---------------------14----------12h|
|------------------------------------|
|
|  PM------|        PM--------|
|  S  S  S S  E     E  S S  S S E  E
|------------------------------------|
|------------------------------------|
|------------------------------------|
|------------------------------------|
|-------------5-----------------6----|
|--3--3--3-3--------3--4-4--4-4----0-|


  (E5)
   S  S  S  S  E    E    E    S  S  +Q
|---------------------------------------------|
|---------------------------------------------|
|---------------------------------------------|
|----------------------------12-14-(14)-------|
|-14p12------------12---14--------------------|
|-------14p12-12------------------------------|
|
|  PM---------------------------------------|
|  S  S  S  S  S S  S S  S S  S  S   S  S S S
|---------------------------------------------|
|---------------------------------------------|
|---------------------------------------------|
|---------------------------------------------|
|---------------------------------------------|
|--0--0--0--0--0-0--0-0--0-0--0--0---0--0-0-0-|


  (G5)           (G#5)
    ~~~~
   +H             +Q         S S S S
|------------------------------------|
|------------------------------------|
|----------------------------4-4-4-4s|
|-(14)-----------(14)\---------------|
|------------------------------------|
|------------------------------------|
|
|   PM-----|   PM----------|
|   S  S S S E E   S   S S S E   E
|------------------------------------|
|------------------------------------|
|------------------------------------|
|------------------------------------|
|------------5---------------6-------|
|---3--3-3-3---3---4---4-4-4-----0---|


  N.C.                                                F5
  S S S S E.     S E   S S S E   S   S S S S E.     S S S S S S S S S
|----------------------------------|------------------------------------|
|----------------------------------|------------------------------------|
|-9-9-9-9-9------7h9---9-9-9-9---7-|-9-9-9-9-9------7h9-9-9-9-9-9-9-9---|
|----------------------------------|------------------------------------|
|----------------------------------|------------------------------------|
|----------------------------------|------------------------------------|
|
|     PM---------|   PM-----------------------------|
| E   S S S  S S S S S S S S S S S   S S S S S  S S S Q       Q
|----------------------------------|------------------------------------|
|----------------------------------|------------------------------------|
|----------------------------------|------------------------------------|
|-2--------------------------------|------------------------------------|
|------------------3---------------|------------------3-------3---------|
|-----1-1-1--1-1-1---1-1-1-1-1-1-1-|-1-1-1-1-1--1-1-1-1-------1---------|


  N.C.                                                   F5
                                                      ~~~~~~~
  S S  S S E   S S  E   S S S S S S    S S S S S E   +S  +E  +E    S E.
|-----------------------------------|-----------------------------------|
|-7h8-10p8p7---7h8h10-----------7h8-|-10p8p7----------------------22p9/-|
|-----------------------9-9-7h9-----|--------9-7-9---(9)-(9)-(9)\-------|
|-----------------------------------|-----------------------------------|
|-----------------------------------|-----------------------------------|
|-----------------------------------|-----------------------------------|
|
|      PM--------|    PM-----------------------------|
| E    S S S S S S  S S S S S S S S    S S S S S S S  S   Q        Q
|-----------------------------------|-----------------------------------|
|-----------------------------------|-----------------------------------|
|-----------------------------------|-----------------------------------|
|-2---------------------------------|-----------------------------------|
|-------------------3---------------|---------------------3--------3----|
|------1-1-1-1-1-1----1-1-1-1-1-1-1-|--1-1-1-1-1-1-1--1---1--------1----|


  N.C.
   S  S  S  S  S  S  S  S  S  S  S  S  S  E     S
|---------------------------------------------------|
|-22p17-20p17p12h15-22p17-20p17p12h15-22p17p==(12)--|
|---------------------------------------------------|
|---------------------------------------------------|
|---------------------------------------------------|
|---------------------------------------------------|
|
|        PM------------|      PM--------------|
|  E     S  S  S  S  S  S  S  S  S  S  S  S S   S
|---------------------------------------------------|
|---------------------------------------------------|
|---------------------------------------------------|
|--2------------------------------------------------|
|--------------------------3------------------------|
|--------1--1--1--1--1--1-----1--1--1--1--1-1---1---|


                         F5
   T              T
   S  S  S  S  S  E    S  S  S  S  S  S  S  S  S
|------------------------------------------------|
|----------------17------------------------------|
|-17-19p17p12h15------19p17p12-------------17p12-|
|------------------------------17p15p12h15-------|
|------------------------------------------------|
|------------------------------------------------|
|
|  PM-----------------|
|  S  S  S  S  S  S S  S  Q           Q
|------------------------------------------------|
|------------------------------------------------|
|------------------------------------------------|
|------------------------------------------------|
|-------------------------3-----------3----------|
|--1--1--1--1--1--1-1--1--1-----------1----------|


  N.C.                                                                 F5
                          T
   S  E.      S  S  S  S  S  S  S  S  S  S  S  S    +Q         Q        +H
|------------------------------------------------|--------------------------------||
|------------------------------------------------|--------------------------------||
|------------------------------------------------|--------------------------------||
|-17p12------17p12-17p12-------------------------|--------------------------------||
|------------------------15-17p12h15-17p15-17p12-|-(12)---------------------------||
|------------------------------------------------|------------12-------(12)\------||
|
|        PM-----------|      PM--------------------------------------|
|  E     S S  S  S  S  S  S  S  S  S  S  S  S  S     S  S S S  S S S S   Q    Q
|------------------------------------------------|--------------------------------||
|------------------------------------------------|--------------------------------||
|------------------------------------------------|--------------------------------||
|--2---------------------------------------------|--------------------------------||
|-------------------------3----------------------|-----------------------3----3---||
|--------1-1--1--1--1--1-----1--1--1--1--1--1--1-|---1--1-1-1--1-1-1-1---1----1---||


    Half time Q=106
    E5   G5 F#5        E5   G5 F#5   D#5          N.C.
    Gtrs I, II
                                                  PM----------------------|
    Q  a  E E +H       Q  a  E E +E  E Q          S S E E S S S S E S S S S  8x
||-------------------|---------------------||-||-----------------------------||
||o------------------|--------------------o||-||o---------------------------o||
||-------------------|---------------------||-||-----------------------------||
||-------------------|---------------------||-||-----------------------------||
||o-2--7s10-9-(9)----|-2--7s10-9-(9)-6-6--o||-||o---------------------------o||
||--0--7s10-9-(9)----|-0--7s10-9-(9)-6-6---||-||--0-0-0---0-0-0-0-0-0-0-0-0--||


    N.C.
    Gtr I
    PM     PM    PM     PM    PM  ~
    S  S S S S S S  S S S S S S S E  4x
||-----------------------------------||-|
||o---------------------------------o||-|
||-----------------------------------||-|
||-----------------------------------||-|
||o---10-9---7-6---10-9---7-6---7-6-o||-|
||--0------0-----0------0-----0------||-|
|
|   Gtr II
|   PM     PM    PM     PM    PM  ~
|   S  S S S S S S  S S S S S S S E  4x
||-----------------------------------||-|
||o---------------------------------o||-|
||-----------------------------------||-|
||-----------------------------------||-|
||o---10-9---7-6---10-9---7-6---7-6-o||-|
||--0------0-----0------0-----0------||-|


    PM     PM    PM     PM    PM  ~     PM     PM    PM     PM    PM
    S  S S S S S S  S S S S S S S E  3x S  S S S S S S  S S S S S E   E
||-----------------------------------||----------------------------------||
||o---------------------------------o||----------------------------------||
||-----------------------------------||----------------------------------||
||-----9-8---5-4----9-8---5-4---5-4--||----9-8---5-4----9-8---9-8--------||
||o---------------------------------o||-------------------------------2--||
||--0------0-----0------0-----0------||-0------0-----0------0-----0---0--||
|
|   PM     PM    PM     PM    PM  ~     PM     PM    PM     PM    PM  ~
|   S  S S S S S S  S S S S S S S E  3x S  S S S S S S  S S S S S S S E
||-----------------------------------||----------------------------------||
||o---------------------------------o||----------------------------------||
||-----------------------------------||----------------------------------||
||-----------------------------------||----------------------------------||
||o---10-9---7-6---10-9---7-6---7-6-o||---10-9---7-6---10-9---7-6---7-6--||
||--0------0-----0------0-----0------||-0------0-----0------0-----0------||


 3rd Verse
  Original Feel Q=212
  E5    F5    G5G#5 G5            G#5 G5            G#5 F5
  Gtrs I, II
    PM|   PM|         PM------|         PM------|         PM----------|
  E E E E E E E E   E E E E E E E E   E E E E E E E E   E E E E E E E E
|-----------------|-----------------|-----------------|-----------------|
|-----------------|-----------------|-----------------|-----------------|
|-----------------|-----------------|-----------------|-----------------|
|-----------------|-----------------|-----------------|-----------------|
|-2-----3-----5s6-|-5-----------5s6-|-5-----------5s6S|=3---------------|
|-0-0-0-1-0-0-3s4-|-3-0-0-0-0-0-3s4-|-3-0-0-0-0-0-3s4S|=1-0-0-0-0-0-0-0-|


  E5    F5    G5G#5 G5            G#5 G5            G#5 F5
    PM|   PM|         PM------|         PM------|         PM--|
  E E E E E E E E   E E E E E E E E   E E E E E E E E   E E E E  H
|-----------------|-----------------|-----------------|----------------|
|-----------------|-----------------|-----------------|----------------|
|-----------------|-----------------|-----------------|----------------|
|-----------------|-----------------|-----------------|----------------|
|-2-----3-----5s6-|-5-----------5s6-|-5-----------5s6S|=3--------------|
|-0-0-0-1-0-0-3s4-|-3-0-0-0-0-0-3s4-|-3-0-0-0-0-0-3s4S|=1-0-0-0-15\----|


  E5    F5    G5G#5 G5            G#5 G5            G#5 F5
    PM|   PM|         PM------|         PM------|         PM----------|
  E E E E E E E E   E E E E E E E E   E E E E E E E E   E E E E E E E E
|-----------------|-----------------|-----------------|-----------------|
|-----------------|-----------------|-----------------|-----------------|
|-----------------|-----------------|-----------------|-----------------|
|-----------------|-----------------|-----------------|-----------------|
|-2-----3-----5s6-|-5-----------5s6-|-5-----------5s6S|=3---------------|
|-0-0-0-1-0-0-3s4-|-3-0-0-0-0-0-3s4-|-3-0-0-0-0-0-3s4S|=1-0-0-0-0-0-0-0-|


  E5    F5    G5G#5 G5            G#5 G5            G#5 F5          BbA5
    PM|   PM|         PM------|         PM------|         PM------|
  E E E E E E E E   E E E E E E E E   E E E E E E E E   E E E E E E E E
|-----------------|-----------------|-----------------|-----------------||
|-----------------|-----------------|-----------------|-----------------||
|-----------------|-----------------|-----------------|-----------------||
|-----------------|-----------------|-----------------|-------------3-2-||
|-2-----3-----5s6-|-5-----------5s6-|-5-----------5s6S|=3-----------1-0-||
|-0-0-0-1-0-0-3s4-|-3-0-0-0-0-0-3s4-|-3-0-0-0-0-0-3s4S|=1-0-0-0-0-0-----||


   Chorus
    Bb5            F5    E5    BbA5        Bb5                          A5
         PM----|     PM|   PM|                PM|    PM|      PM|
    H    E E E E   E E E E E E E E  4x     Q  E E Q  E E   Q  E E E E E E  4x
||---------------|------------------||-||----------------|-----------------||
||o--------------|-----------------o||-||o---------------|----------------o||
||---------------|------------------||-||----------------|-----------------||
||--3------------|-------------3-2--||-||--3------3------|-3----------3s2--||
||o-1------------|-3-----2-----1-0-o||-||o-1------1------|-1----------1s0-o||
||-------0-0-0-0-|-1-0-0-0-0-0------||-||-----0-0----0-0-|----0-0-0-0------||


  Bb5             F5                A5   G#5    G
     PM|    PM|     PM|   PM|   PM              ~
  Q  E E Q  E E   E E E E E E E E   Q.   E +Q   Q
|---------------|-----------------|----------------*|
|---------------|-----------------|----------------*|
|---------------|-----------------|----------------*|
|-3------3------|-----------------|----------------*|
|-1------1------|-3-----3-----3---|-7----6-(6)-----*|
|----0-0----0-0-|-1-0-0-1-0-0-1-0-|-5----4-(4)--3--*|



Duration Legend
---------------
W - whole; H - half; Q - quarter; E - 8th; S - 16th; T - 32nd; X - 64th; a - acciaccatura
+ - note tied to previous; . - note dotted; .. - note double dotted
Uncapitalized letters represent notes that are staccato (1/2 duration)
Irregular groupings are notated above the duration line
Duration letters will always appear directly above the note/fret number it represents the
duration for.  Duration letters with no fret number below them represent rests.  Multi-
bar rests are notated in the form Wxn, where n is the number of bars to rest for.  Low
melody durations appear below the staff

Tablature Legend
----------------
 h   - hammer-on
 p   - pull-off
 b   - bend
 pb  - pre-bend
 r   - bend release (if no number after the r, then release immediately)
 /\  - slide into or out of (from/to "nowhere")
 s   - legato slide
 S   - shift slide
 - natural harmonic
[n]  - artificial harmonic
n(n) - tapped harmonic
 ~   - vibrato
 tr  - trill
 T   - tap
 TP  - trem. picking
 PM  - palm muting
\n/  - tremolo bar dip; n = amount to dip
 \n  - tremolo bar down
 n/  - tremolo bar up
/n\  - tremolo bar inverted dip
 =   - hold bend; also acts as connecting device for hammers/pulls
 <> - volume swell (louder/softer)
 x   - on rhythm slash represents muted slash
 o   - on rhythm slash represents single note slash

Misc Legend
-----------
 |  - bar
||  - double bar
||o - repeat start
o|| - repeat end
*|  - double bar (ending)
 :  - bar (freetime)
 $  - Segno
 &  - Coda
Tempo markers -  = BPM(8/16=s8/s16), where s8 = swing 8ths, s16 = swing 16ths

Tap to rate this tab
 
# A B C D E F G H I J K L M N O P Q R S T U V W X Y Z