Song name
# A B C D E F G H I J K L M N O P Q R S T U V W X Y Z

Sepultura - Territory tab

Tuning: Drop C#
high to low (F#, C#, G#, C#)


Drum Intro.


|---------|
|---------|
|-5p4-4-4-|
|---------|x8

|-----------|
|-----------|
|-----------|
|-0~--------|x4

|-----------------------------|
|-----------------------------|
|-----------------------------|
|-1-1-11-1-1-11-1-1-11-1-1-11-|x2


|-----------|
|-----------|
|-----------|
|-0~--------|

Drum break.


|---------------------------------------------|
|---------------------------------------------|
|---------------------------------------------|
|-4-1-1-1-4-1-1-1-0~----4-1-1-1-4-1-1-1-5~----|x2


|-----------------|
|-----------------|
|-----------------|
|-5-0-2-0-5-0-2-0-|x8


|---------------------------------------------|
|---------------------------------------------|
|---------------------------------------------|
|-4-1-1-1-4-1-1-1-0~----4-1-1-1-4-1-1-1-5~----|x2

|-------------------------|
|-------------------------|
|-------------------------|
|-1-111-1-111-1-111-1-111-|x2


|-----------------|
|-----------------|
|-----------------|
|-5-0-2-0-5-0-2-0-|x8


|---------------------------------------------|
|---------------------------------------------|
|---------------------------------------------|
|-4-1-1-1-4-1-1-1-0~----4-1-1-1-4-1-1-1-5~----|x2

|-----------|
|-----------|
|-----------|
|-0~--------|


|-------------------|
|-------------------|
|-4-4----4-4-4------|
|-----00-------0000-|x4

|----------------|
|----------------|
|----------------|
|-2~---3~---6~---|x4


|-------------------|
|-------------------|
|-4-4----4-4-4------|
|-----00-------0000-|x4


|-----------------|
|-----------------|
|-----------------|
|-0-0-0-1-0-0-0-1-|x3
                        x2
|--------------|
|--------------|
|-----4--5--6--|
|-0-0----------|


|-----------------------|
|-----------------------|
|-5-2~--6-3~--5-2~------|
|-------------------0~--|x2


|-----------------|
|-----------------|
|-----------------|
|-0-0-0-1-0-0-0-1-|x3
                      
|--------------|
|--------------|
|-----4--5--6--|
|-0-0----------|


|---------------------------------|
|---------------------------------|
|-5p4-4-4-4-4-5p4-4-4-5p4-5p4-5p4-|
|---------------------------------|x4

|-------------------------------|
|-------------------------------|
|-------------------------------|
|-0-0---0-0---0-0---0-0---0-0-0-|x4


Drum Break.


|-----------------|
|-----------------|
|-----------------|
|-5-0-2-0-5-0-2-0-|x16


|---------------------------------------------|
|---------------------------------------------|
|---------------------------------------------|
|-4-1-1-1-4-1-1-1-0~----4-1-1-1-4-1-1-1-5~----|x2

|-------------------|
|-------------------|
|-------------------|
|-0~----------------|


Guitar Break.


|-----------------|
|-----------------|
|-----------------|
|-0-0-0-1-0-0-0-1-|x16
Tap to rate this tab
# A B C D E F G H I J K L M N O P Q R S T U V W X Y Z