Song name
# A B C D E F G H I J K L M N O P Q R S T U V W X Y Z

Sepultura - Weve Lost You tab

Help us improve GuitareTab! Take a short survey!
tab by militant

Sepultura - We've lost you    from album A-LEX

Electric guitar:

C5 |-----------------------------------|
G4 |-----------------------------------|
D#4|-----------------------------------|
A#3|---6---------6-5-6-----------6-----|
F3 |---4---------4-3-4-----------4-----|
A#2|-0-------------------------0-------|

           (4x)               (4x)               (4x)
C5 |------------------|------------------|------------------|
G4 |------------------|------------------|------------------|
D#4|------------------|------------------|------------------|
A#3|--4-4-4-4-4-4-4---|--3-3-3-3-3-3-3---|--4-4-4-4-4-4-4---|
F3 |--6-6-6-6-6-6-6---|--5-5-5-5-5-5-5---|--6-6-6-6-6-6-6---|
A#2|----------------0-|----------------0-|----------------0-|

           (3x)
C5 |------------------|--------------------|
G4 |------------------|--------------------|
D#4|------------------|--------------------|
A#3|--3-3-3-3-3-3-3---|--3-3-3-------------|
F3 |--5-5-5-5-5-5-5---|--5-5-5-4-4-2-2-2---|
A#2|----------------0-|--------4-4-2-2-2---|

           (3x)
C5 |-----------------|-----------------|
G4 |-----------------|-----------------|
D#4|-----------------|-----------------|
A#3|-----------------|-----------------|  (repeat 2x)
F3 |-----------------|-----------------|
A#2|-1-1-1-1-1-0-4-2-|-1-1-1-1-1-0-0-0-|


C5 |----------------------------------------|
G4 |----------------------------------------|
D#4|----------------------------------------|
A#3|---1--------1--------1------------------|  (repeat 2x)
F3 |--0--------0--------0---------4-4-2-2-0-|
A#2|-1--2-2---1--2-2---1--2-2---1-4-4-2-2-0-|

            
           (3x)
C5 |-----------------|-----------------|
G4 |-----------------|-----------------|
D#4|-----------------|-----------------|
A#3|-----------------|-----------------|  (repeat 2x)   
F3 |-----------------|-----------------|
A#2|-1-1-1-1-1-0-4-2-|-1-1-1-1-1-0-0-0-|

           (4x)              (4x)
C5 |-----------------|-----------------|
G4 |-----------------|-----------------|
D#4|-----------------|-----------------|
A#3|-----------------|-----------------|  
F3 |-111-1-1-1-0-3-0-|-0-0-0-0-0-0-0-1-|
A#2|-111-1-1-1-0-3-0-|-0-0-0-0-0-0-0-1-|


C5 |----------------------------------------|
G4 |----------------------------------------|
D#4|----------------------------------------|
A#3|---1--------1--------1------------------|  (repeat 2x)
F3 |--0--------0--------0---------4-4-2-2-0-|
A#2|-1--2-2---1--2-2---1--2-2---1-4-4-2-2-0-|


C5 |-----------------------------------------------------|
G4 |--------------16-16--------------------15-15---------|
D#4|-----------------------------------------------------|
A#3|--16--16-16-(16)(16)-16-16-15--15-15-(15)(15)-15-15--|  (repeat 3x)
F3 |-----------------------------------------------------|
A#2|-----------------------------------------------------|


C5 |---------------------------------------15-15--------------|
G4 |--------------16-16---------------------------------------|
D#4|----------------------------------------------------------|
A#3|--16--16-16-(16)(16)-16-16-15--15-15-(15)(15)-------------|  (repeat 3x)
F3 |----------------------------------------------4-4-2-2-2---|
A#2|----------------------------------------------4-4-2-2-2---|


           (3x)
C5 |-----------------|-----------------|
G4 |-----------------|-----------------|
D#4|-----------------|-----------------|
A#3|-----------------|-----------------|  (repeat 2x)  
F3 |-----------------|-----------------|
A#2|-1-1-1-1-1-0-4-2-|-1-1-1-1-1-0-0-0-|

            (3x)
C5 |-----------------|-------------------|
G4 |-----------------|-------------------|
D#4|-----------------|-------------------|
A#3|-----------------|-------------------|  (repeat 2x)  
F3 |-----------------|---------0-0-0-0-0-|
A#2|-1-1-1-1-1-0-3-0-|-1-1-1-1-0-0-0-0-0-|

     |------4x-----|
C5 |--------------------------|
G4 |--------------------------|
D#4|--------------------------|
A#3|--------------------------| 
F3 |-0-0-0-0-0-0-0-0----------|
A#2|-0-0-0-0-0-0-0-0-1--------|
Related for Weve Lost You tab