Song name
# A B C D E F G H I J K L M N O P Q R S T U V W X Y Z

Sepultura - Mongoloid tab

 
         Sepultura - mongoloid
        Album - Revolution songs
 
        Tab by Caranokol



Intro (effect distortion/wah)         

e|-------------------------------------------------------------------|
B|---------------------------------------------------------------(x2)|
G|---------------------5-x-5--55--5--5-------------------------------|
D|---7-x-7--77-7-7-----5-x-5--55--5--5----x-3-3---5-5---7-7-77-------|
A|---7-x-7--77-7-7-----3-x-3--33--3--3----x-3-3---5-5---7-7-77-------|
E|---5-x-5--55-5-5------------------------x-1-1---3-3---5-5-55-------|

  verse

e|-------------------------------------------------------------------|
B|---------------------------------------------------------------(x4)|
G|---------------------5-x-5--55--5--5-------------------------------|
D|---7-x-7--77-7-7-----5-x-5--55--5--5----x-3-3---5-5---7-7-77-------|
A|---7-x-7--77-7-7-----3-x-3--33--3--3----x-3-3---5-5---7-7-77-------|
E|---5-x-5--55-5-5------------------------x-1-1---3-3---5-5-55-------|
   
  pre-chorus  

e|-----------------------------------|
B|-----------------------------------|
G|--5--x-------------------(x4)------|
D|--5--x-3-3----7-7-77---------------|
A|--3--x-3-3----7-7-77---------------|
E|-------1-1----5-5-55---------------|

        
----palm mute-----
e|--------------------------------------|
B|--------------------------------------|
G|--------------------------------------|
D|--------------------------------------|
A|---7-7-7-7-7-7-7-7-7-7----------------|
E|---5-5-5-5-5-5-5-5-5-5----------------|

     Chorus

e|-------------------------------------------------------------------|
B|---------------------------------------------------------------(x2)|
G|---------------------5-x-5--55--5--5-------------------------------|
D|---7-x-7--77-7-7-----5-x-5--55--5--5----x-3-3---5-5---7-7-77-------|
A|---7-x-7--77-7-7-----3-x-3--33--3--3----x-3-3---5-5---7-7-77-------|
E|---5-x-5--55-5-5------------------------x-1-1---3-3---5-5-55-------|


e|-----------------------------------|
B|-----------------------------------|
G|--5--x-------------------(x4)------|
D|--5--x-3-3----7-7-77---------------|
A|--3--x-3-3----7-7-77---------------|
E|-------1-1----5-5-55---------------|

----lyric----

Mongoloid he was a mongoloid
Happier than you and me
Mongoloid he was a mongoloid
And it determined what he could see

And he wore a hat
And he had a job
And he brought home the bacon
So that no one knew

Mongoloid he was a mongoloid
His friends were unaware
Mongoloid he was a mongoloid
Nobody even cared

And he wore a hat
And he had a job
And he brought home the bacon
so that no one knew

Mongoloid he was a mongoloid
Happier than you and me
Mongoloid he was a mongoloid
And it determined what he could see

Mongoloid (x4)

Mongoloid he was a mongoloid
Happier than you and me
Mongoloid he was a mongoloid
And it determined what he could see

Mongoloid he was a mongoloid
His friends were unaware

Mongoloid
Tap to rate this tab
 
# A B C D E F G H I J K L M N O P Q R S T U V W X Y Z