Song name
# A B C D E F G H I J K L M N O P Q R S T U V W X Y Z

Sepultura - Mind War tab

Sepultura Ė Mindwar
Tuning- Drop D
There were no accurate tabs so I made my own
Intro and Main Riff through whole song
E|----------|
b|----------|
g|-5--------|
d|-3-0-3-4-4|  x8
A|-3-0-3-4-4|
D|---0-3-4-4|
Verse
e|--------|
b|--------|
g|-5------|
d|-3-0-3--| x4
A|-3-0-3--|
D|---0-3--|
E|----------|
b|----------|
g|-5--------|
d|-3-0-3-4-4| x5
A|-3-0-3-4-4|
D|---0-3-4-4|
e|--------|
b|--------|
g|-5------|
d|-3-0-3--| x4
A|-3-0-3--|
D|---0-3--|
breakdown before chorus
idk
chorus 
e|--------|
b|--------|
g|-5------|
d|-3-0-4--| x8
A|-3-0-4--|
D|---0-4--|
back to breakdown
with flanger
E|----------|
b|----------|
g|-5--------|
d|-3-0-3-4-4| x5
A|-3-0-3-4-4|
D|---0-3-4-4|
Verse 2
e|--------|
b|--------|
g|-5------|
d|-3-0-3--| x8
A|-3-0-3--|
D|---0-3--|
bridge and riff over solo
e|--------------|
b|--------------|
g|--------------|
d|-4-4-4---5-5-5| 
A|-4-4-4---5-5-5|
D|-4-4-4---5-5-5|

thatís all I got right now, Iíll do the rest later
please rate and comment
Tap to rate this tab
# A B C D E F G H I J K L M N O P Q R S T U V W X Y Z