Guitaretab - guitar tabs
Song name
# A B C D E F G H I J K L M N O P Q R S T U V W X Y Z

Sepultura - Refuse Resist tab

#----------------------------------PLEASE NOTE---------------------------------#
#This file is the author's own work and represents their interpretation of the #
#song. You may only use this file for private study, scholarship, or research. #
#------------------------------------------------------------------------------#

REFUSE/RESIST
As recorded by Sepultura
(From the 1993 Album CHAOS A.D.)

Transcribed by Doetje2
	

Words by Max Cavalera Music by Max Cavalera, Andreas Kisser, Igor Cavalera, Paulo
Xisto Pinto Junior

A#5
x 1 3 x x x
	
C#5
x 4 6 x x x
	
E5VII
0 7 9 x x x
	
E5
0 2 x x x x

F5
1 3 x x x x
	
G5
3 5 x x x x
	
G#5
4 6 x x x x
	
C5
8 10 x x x x

A#5VI
6 8 x x x x
	
D5
x 5 7 x x x
	
F#5
2 4 x x x x

Gtr I (D G C F A D) - 'Gtr. I (Distorted Electric)'
Gtr II (D G C F A D) - 'Gtr. II (Distorted Electric)'
Gtr III (D G C F A D) - 'Gtr. III (Distorted Electric)'

   Intro
    Moderate Rock Q=120
    F5      E5              N.C.
   4/4
    Gtrs I, II
    PM------|
    S S S S H.       4x     S S S S E S S S S E S S E  4x
||-------------------||-||-----------------------------||
||o-----------------o||-||o---------------------------o||
||-------------------||-||-----------------------------||
||-------------------||-||-----------------------------||
||o-3-3-3-3-2-------o||-||o---------------------------o||
||--1-1-1-1-0--------||-||--6-6-6-6-0-6-6-6-6-0-6-0-0--||
|
|   W                4x     W                          4x
||-------------------||-||-----------------------------||
||o-----------------o||-||o---------------------------o||
||-------------------||-||-----------------------------||
||-------------------||-||-----------------------------||
||o-----------------o||-||o---------------------------o||
||-------------------||-||-----------------------------||


      N.C.
       S  S  S  S E  S  S  S  S E  S  S E   4x
|-||----------------------------------------||
|-||o--------------------------------------o||
|-||----------------------------------------||
|-||----------------------------------------||
|-||o--------------------------------------o||
|-||---6--6--6--6-0--6--6--6--6-0--6--0-0---||
|
|     Gtr III
|      S  S  S  S E  S  S  S  S E  S  S E   4x
|-||----------------------------------------||
|-||o-11-11-11-11---11-11-11-11---11-11----o||
|-||--------------9-------------9-------9---||
|-||----------------------------------------||
|-||o--------------------------------------o||
|-||----------------------------------------||


    A#5    C#E5VII    A#5    C#E5VII    A#5    C#E5VII
    Gtrs I, II
    Q  S S E E E Q    Q  S S E E E Q    Q  S S E E E E E   E E E E E E E E
    |  | | | | |      |  | | | | |      |  | | | | |   |     |   |   |   |
    /  x x / / /      /  x x / / /      /  x x / / /   /     /   /   /   /

    W                 W                 W                  W
||------------------|-----------------|------------------|------------------||
||o-----------------|-----------------|------------------|-----------------o||
||------------------|-----------------|------------------|------------------||
||------------------|-----------------|------------------|------------------||
||o-----------------|-----------------|------------------|-----------------o||
||------------------|-----------------|------------------|------------------||


   1st Verse
    E       E5     F5G5G#5       N.C.
    Gtrs I, II
    S S S S Q  +E  E E E         W
    | | | | |   |  | | |
    o / / / /   /  / / /

    Gtr III                      Gtrs I, II
    PM----|
    S S S S Q  +E  E E E  8x     S S S S E S S S S E S S E  3x
||------------------------||-||-----------------------------||
||o----------------------o||-||o---------------------------o||
||------------------------||-||-----------------------------||
||------------------------||-||-----------------------------||
||o---------2--(2)-3-5-6-o||-||o---------------------------o||
||--0-0-0-0-0--(0)-1-3-4--||-||--6-6-6-6-0-6-6-6-6-0-6-0-0--||


  W
            PM----------------|
  S S S S E S S S S S S S S S S
|---------------------------------||
|---------------------------------||
|---------------------------------||
|---------------------------------||
|---------------------------------||
|-6-6-6-6-0-6-6-6-6-6-6-6-6-6-6---||


   2nd Verse                Chorus
    E       E5     F5G5G#5   C5        G#5       E5         A#5VI        G#5
    Gtrs I, II
    S S S S Q  +E  E E E     E S S E E E E E E   W          E S S E E Q  Q
    | | | | |   |  | | |     | | | | | | | | |   |          | | | | | |  |
    o / / / /   /  / / /     / / / / / / / / /   /          / / / / / /  /

    Gtr III
    PM----|
    S S S S Q  +E  E E E  8x W                   W          W
||------------------------||-------------------|----------|------------------|
||o----------------------o||-------------------|----------|------------------|
||------------------------||-------------------|----------|------------------|
||------------------------||-------------------|----------|------------------|
||o---------2--(2)-3-5-6-o||-------------------|----------|------------------|
||--0-0-0-0-0--(0)-1-3-4--||-------------------|----------|------------------|


  E5         C5       G#5    E5         A#5VI         G#5
                                       7/8
  W          Q  E E E E Q    W          E S S E E E E e
  |          |  | | | | |    |          | | | | | | | |
  /          /  / / / / /    /          / / / / / / / /

  W          W               W          W
|----------|---------------|----------|-----------------||
|----------|---------------|----------|-----------------||
|----------|---------------|----------|-----------------||
|----------|---------------|----------|-----------------||
|----------|---------------|----------|-----------------||
|----------|---------------|----------|-----------------||


  Faster Q=160
  D5C#5  G#G5     D5C#5  D5C#5    D5C#5  G#G5     D5C#5  D5C#5
 4/4
  Gtr I                           Gtrs I, II
  E Q  E E Q  E   E Q  E E Q  E   E Q  E E Q  E   E Q  E E Q  E
  | |  | | |  |   | |  | | |  |   | |  | | |  |   | |  | | |  |
  / /  / / /  /   / /  / / /  /   / /  / / /  /   / /  / / /  /

  W               W               W               W
|---------------|---------------|---------------|----------------||
|---------------|---------------|---------------|----------------||
|---------------|---------------|---------------|----------------||
|---------------|---------------|---------------|----------------||
|---------------|---------------|---------------|----------------||
|---------------|---------------|---------------|----------------||


 Guitar Solo
  G5 F#5
   E S S +S  S  E     S  S  S  S  S  S  S  S
   | | |  |  |  |     |  |  |  |  |  |  |  |
   / / /  /  /  /     /  /  /  /  /  /  /  /

   Q      S  S  S  S  S  S  S  S  S  S  S  S
|--------------------------------------------|
|--------------------------------------------|
|-16-----16-16-16-16-16-16-16-16-16-16-16-16-|
|--------------------------------------------|
|--------------------------------------------|
|--------------------------------------------|


  G5    F#5
   E     S  S +S  S  E     S  S  S  S  S  S   S S
   |     |  |  |  |  |     |  |  |  |  |  |   | |
   /     /  /  /  /  /     /  /  /  /  /  /   / /

   S  S  S  S  S  S  S  S  S  S  S  S  E      E
|-------------------------------------------------|
|-------------------------------------------------|
|-16-16-16-16-16-16-16-16-16-16-16-16-16\---/16---|
|-------------------------------------------------|
|-------------------------------------------------|
|-------------------------------------------------|


  G5    F#5
   E     S  S +S    S    E        S  S  S  S  S    S    S    S
   |     |  |  |    |    |        |  |  |  |  |    |    |    |
   /     /  /  /    /    /        /  /  /  /  /    /    /    /

               |-------5-------|              |--------5--------|
   S  S  S  S  S  S    S    S  S  S  S  S  S  S  S    S    S    S
|-----------------------------------------------------------------|
|-14h17p14----14h17p==14------14-17-14----------------------------|
|----------16--------------16----------16p14-16p14---16---14------|
|--------------------------------------------------------------16-|
|-----------------------------------------------------------------|
|-----------------------------------------------------------------|


  G5    F#5
   E     S  S +S    S    E        S  S  S S   S   S S S
   |     |  |  |    |    |        |  |  | |   |   | | |
   /     /  /  /    /    /        /  /  / /   /   / / /

               |-------5-------|
   S  S  S  S  S  S    S    S  S  S  E.      +E     E
|-------------------------------------------------------|
|-------------------------------------------------------|
|-------14h16-14----------------------------------------|
|-14-16----------16p==14---16p14--------------------4---|
|--------------------------------16p14------(14)\-------|
|-------------------------------------------------------|


  G5F#5
  E S S +S S E   S S S S S S S S
  | | |  | | |   | | | | | | | |
  / / /  / / /   / / / / / / / /
[ Tab from: http://www.guitaretab.com/s/sepultura/26416.html ]
  E S S  S S S S S S S S S S E
|---6-6--6-7-6-6-6-7-6-6-6-7-6---|
|--------------------------------|
|--------------------------------|
|-4------------------------------|
|--------------------------------|
|--------------------------------|


  G5  F#5
   E  S S +S    S  E   S     S   S  S S  S S S
   |  | |  |    |  |   |     |   |  | |  | | |
   /  / /  /    /  /   /     /   /  / /  / / /

   E  S S  S   +S  S S S    +S  +E    E    E
|----------------------------------------------|
|----------------------------------------------|
|-(0)------------------------------------------|
|-----4-4--4b5-(4)-4-4-4b5==(4)r(4)------------|
|-------------------------------------x/---0---|
|----------------------------------------------|


  G5  F#5
   E   S  S +S S E  S      S    S  S S S S S
   |   |  |  | | |  |      |    |  | | | | |
   /   /  /  / / /  /      /    /  / / / / /

  +E   S  S  Q      S     +S   +Q.
|--------------------------------------------|
|-----14-14-14-----16b17-(16)-(16)-----------|
|-----14-14-14-----16b17-(16)r(16)-----------|
|--------------------------------------------|
|-(0)----------------------------------------|
|--------------------------------------------|


  G5   F#5
    E  S S +S S E  S  S   S  S S S S S
    |  | |  | | |  |  |   |  | | | | |
    /  / /  / / /  /  /   /  / / / / /

   +E  Q        E +E      Q        E
|--------------------------------------||
|-(16)---------------------------------||
|-(16)-6--------2-(2)------------------||
|---------------2-(2)------------------||
|--------------------------------------||
|-----------------------/17\-----------||


  D5  C#5   G#G5     D5  C#5
  E   Q   E E Q  E   E   Q     E E Q        E
  |   |   | | |  |   |   |     | | |        |
  /   /   / / /  /   /   /     / / /        /

      ~~
  S S Q.    E Q  E   S S Q.      E E   +E   E
|------------------|--------------------------|
|------------------|--------------------------|
|-----------6-6----|--------------------------|
|-----------5-5----|--------------------------|
|-4h6p4------------|-4h6p4tr6----6-6b8-(6)\---|
|------------------|--------------------------|


  D5  C#5       G#G5          D5 C#5
  E   Q       E E Q       E    E Q     E E    Q  E
  |   |       | | |       |    | |     | |    |  |
  /   /       / / /       /    / /     / /    /  /

                                         ~~~~
      |-3-|       |-3-|
  S S S S S E E E S S S E E    E S S E E Q.      E
|---------------------------|-----------------------|
|---------------------------|--------------------5S=|
|---------------------------|-/8p6h8p6-6-8b10-------|
|-------------5-7-5h7p5-5-5-|-----------------------|
|-4h6p4h6p4-----------------|-----------------------|
|-----------7---------------|-----------------------|


  D5C#5   G#G5          D5   C#5
  E Q   E E Q       E   E    Q          E   E   Q   E
  | |   | | |       |   |    |          |   |   |   |
  / /   / / /       /   /    /          /   /   /   /

  E Q   E E E +S  S E   S  S S  S S  E.     E   Q   E
|-9-9\----9-9-(9)-9-9-|-9h12-9h12p9-------------------|
|-9-9\--5S9-9-(9)-9-9-|-------------11----(11)-11-----|
|---------------------|---------------------9---9\----|
|---------------------|-----------------------------0-|
|---------------------|-------------------------------|
|---------------------|-------------------------------|


  D5C#5     G#5G5         D5 C#5
  E Q     E  E Q    E      E   Q    E   E    Q     E
  | |     |  | |    |      |   |    |   |    |     |
  / /     /  / /    /      /   /    /   /    /     /

                                             ~~~~
  E E S E.   Q   E  S S    E   Q    E   E   +Q    +E
|----------------9h12p9-|-----12-------22--(22)--------|
|-------4s==11----------|-11-(11)s=21-(21)-(21)--(21)\-|
|---2-2-----------------|------------------------------|
|-1---------------------|------------------------------|
|-----------------------|------------------------------|
|-----------------------|------------------------------|


                                     3rd Verse
    Moderate Rock Q=120
    N.C.                              E       E5     F5G5G#5
                                      Gtrs I, II
    W                                 S S S S Q  +E  E E E
                                      | | | | |   |  | | |
                                      o / / / /   /  / / /

    Gtrs I, II                        Gtr III
                                      PM----|
    S S S S E S S S S E S S E  4x     S S S S Q  +E  E E E  8x
||-----------------------------||-||------------------------||
||o---------------------------o||-||o----------------------o||
||-----------------------------||-||------------------------||
||-----------------------------||-||------------------------||
||o---------------------------o||-||o---------2--(2)-3-5-6-o||
||--6-6-6-6-0-6-6-6-6-0-6-0-0--||-||--0-0-0-0-0--(0)-1-3-4--||


 Chorus
  C5        G#5       E5         A#5VI        G#5
  E S S E E E E E E   W          E S S E E Q  Q
  | | | | | | | | |   |          | | | | | |  |
  / / / / / / / / /   /          / / / / / /  /

  W                   W          W
|-------------------|----------|------------------|
|-------------------|----------|------------------|
|-------------------|----------|------------------|
|-------------------|----------|------------------|
|-------------------|----------|------------------|
|-------------------|----------|------------------|


  E5         C5       G#5    E5         A#5VI        G#5
  W          Q  E E E E Q    W          E S S E E Q  Q
  |          |  | | | | |    |          | | | | | |  |
  /          /  / / / / /    /          / / / / / /  /

  W          W               W          W
|----------|---------------|----------|-----------------||
|----------|---------------|----------|-----------------||
|----------|---------------|----------|-----------------||
|----------|---------------|----------|-----------------||
|----------|---------------|----------|-----------------||
|----------|---------------|----------|-----------------||


    N.C.
    Gtrs I, II
    S S S S E S S S S E S S E  4x      S  S  S  S E  S  S  S  S E  S  S E  4x
||-----------------------------||-||---------------------------------------||
||o---------------------------o||-||o-------------------------------------o||
||-----------------------------||-||---------------------------------------||
||-----------------------------||-||---------------------------------------||
||o---------------------------o||-||o-------------------------------------o||
||--6-6-6-6-0-6-6-6-6-0-6-0-0--||-||---6--6--6--6-0--6--6--6--6-0--6--0-0--||
|
|                                     Gtr III
|   W                          4x      S  S  S  S E  S  S  S  S E  S  S E  4x
||-----------------------------||-||---------------------------------------||
||o---------------------------o||-||o-11-11-11-11---11-11-11-11---11-11---o||
||-----------------------------||-||--------------9-------------9-------9--||
||-----------------------------||-||---------------------------------------||
||o---------------------------o||-||o-------------------------------------o||
||-----------------------------||-||---------------------------------------||


    F5      E5          F5      E5
    Gtrs I, II
    PM--------------------------|
    S S S S H.       4x S S S S E E H
||-------------------||------------------*|
||o-----------------o||------------------*|
||-------------------||------------------*|
||-------------------||------------------*|
||o-3-3-3-3-2-------o||-3-3-3-3-2--------*|
||--1-1-1-1-0--------||-1-1-1-1-0--------*|



Duration Legend
---------------
W - whole; H - half; Q - quarter; E - 8th; S - 16th; T - 32nd; X - 64th; a - acciaccatura
+ - note tied to previous; . - note dotted; .. - note double dotted
Uncapitalized letters represent notes that are staccato (1/2 duration)
Irregular groupings are notated above the duration line
Duration letters will always appear directly above the note/fret number it represents the
duration for.  Duration letters with no fret number below them represent rests.  Multi-
bar rests are notated in the form Wxn, where n is the number of bars to rest for.  Low
melody durations appear below the staff

Tablature Legend
----------------
 h   - hammer-on
 p   - pull-off
 b   - bend
 pb  - pre-bend
 r   - bend release (if no number after the r, then release immediately)
 /\  - slide into or out of (from/to "nowhere")
 s   - legato slide
 S   - shift slide
 - natural harmonic
[n]  - artificial harmonic
n(n) - tapped harmonic
 ~   - vibrato
 tr  - trill
 T   - tap
 TP  - trem. picking
 PM  - palm muting
\n/  - tremolo bar dip; n = amount to dip
 \n  - tremolo bar down
 n/  - tremolo bar up
/n\  - tremolo bar inverted dip
 =   - hold bend; also acts as connecting device for hammers/pulls
 <> - volume swell (louder/softer)
 x   - on rhythm slash represents muted slash
 o   - on rhythm slash represents single note slash

Misc Legend
-----------
 |  - bar
||  - double bar
||o - repeat start
o|| - repeat end
*|  - double bar (ending)
 :  - bar (freetime)
 $  - Segno
 &  - Coda
Tempo markers -  = BPM(8/16=s8/s16), where s8 = swing 8ths, s16 = swing 16ths

Related for Refuse Resist tab
Advertisement will be closed in 10 seconds