Song name
# A B C D E F G H I J K L M N O P Q R S T U V W X Y Z

Sepultura - Screams Behind The Shadows tab

-------------------------------------------------------------------------------
			     Screams Behind The Shadows - Sepultura
-------------------------------------------------------------------------------
Tabbed by: MetalMike72

Tuning: Standard

Riff A (2x):
e|---------------------------------|---------------------------------|
B|---------------------------------|---------------------------------|
G|-9-------------------------------|-8-------------------------------|
D|-9-------------------7h8-----7h8-|-8-------------------6h7p6h7p6---|
A|-7---------------7h8-----7h8-----|-6---------------6h7-----------7-|
E|---------------------------------|---------------------------------|

Riff B (2x):
                   PM.............                   PM.
e|---------------------------------|---------------------------------|
B|---------------------------------|---------------------------------|
G|-9-------------------------------|-8-------------------------------|
D|-9-------------------7-8-----7-8-|-8-------------------6h7p6h7p6---|
A|-7---------------7-8-----7-8-----|-6---------------6-7-----------7-|
E|---------------------------------|---------------------------------|

Fill 1:
e|---------------------------------|---------------------------------|
B|---------------------------------|---------------------------------|
G|-9-------9-------9-------9-------|-9-------------------------------|
D|-9-------9-------9-------9-------|-9-------------------------------|
A|-7-------7-------7-------7-------|-7-------------------------------|
E|---------------------------------|---------------------------------|

Riff C 6x:
      PM..    PM..    PM..              PM..    PM..    PM..
e|---------------------------------|---------------------------------|
B|---------------------------------|---------------------------------|
G|-9-------9-------9-------10--9---|-8-------8-------8-------8---8---|
D|-9-------9-------9-------10--9---|-8-------8-------8-------8---8---|
A|-7--7777-7--7777-7--7777---------|-6--6666-6--6666-6--6666-6---6---|
E|---------------------------------|---------------------------------|

Riff D: 
e|---------------------------------|---------------------------------|
B|---------------------------------|---------------------------------|
G|---------------------------------|---------------------------------|
D|-4-------3-------4-------3-------|-4-------3-------4-------3---3---|
A|-4-------3-------4-------3-------|-4-------3-------4-------3---3---|
E|-2--0-0--1--0-0--2--0-0--1--0-0--|-2--0-0--1--0-0--2--0-0--1---1---|

Riff E (4x):
   PM..............................
e|---------------------------------|
B|---------------------------------|
G|---------------------------------|
D|---------------------------------|
A|---------------------------------|
E|-2-2-2-2-1-1-1-1-2-2-2-2-1-1-1-1-|

Repeat Riff C 4x

Riff F (4x):
   PM..................... 
e|---------------------------------|
B|---------------------------------|
G|-------------------------4---3---|
D|-------------------------4---3---|
A|-----------------3-3-3-3-2---1---|
E|-2-2-2-2-1-1-1-1-----------------|

Riff G (2x):
   PM................................................................
e|---------------------------------|---------------------------------|
B|---------------------------------|---------------------------------|
G|---------------------------------|---------------------------------|
D|---------------------------------|---------------------------------|
A|---------5-5-5-5-6-6-6-6---------|---------5-5-5-5-6-6-6-6---------|
E|-3-3-3-3-----------------6-6-6-6-|-3-3-3-3-----------------6-6-6-6-|

   PM................................................................
e|---------------------------------|---------------------------------|
B|---------------------------------|---------------------------------|
G|---------------------------------|---------------------------------|
D|---------------------------------|---------------------------------|
A|---------8-8-8-8-7-7-7-7---------|---------8-8-8-8-7-7-7-7---------|
E|-6-6-6-6-----------------8-8-8-8-|-6-6-6-6-----------------8-8-8-8-|

Riff H:
                           PM......                          PM......
e|---------------------------------|---------------------------------|--------|
B|---------------------------------|---------------------------------|--------|
G|---------7-------8---------------|---------7-------8---------------|--------|
D|-5-------7-------8---------------|-5-------7-------8---------------|-5------|
A|-5-------5-------6---------------|-5-------5-------6---------------|-5------|
E|-3-----------------------6--5--4-|-3-----------------------6--5--4-|-3------|

Repeat Riff F 4x
Repeat Riff G 2x

Fill 2:
   PM..............
e|-----------------|
B|-----------------|
G|-----------------|
D|-9-7---6-7-------|
A|-----8-----8-7-6-|
E|-----------------|
 
Riff I (4x):
   PM.................     PM.       PM.............
e|---------------------------------|---------------------------------|
B|---------------------------------|---------------------------------|
G|---------------------9-------8---|---------------------------------|
D|---------------------9-------8---|---------------------7-8-10-8-7--|
A|---------------------7-------6---|-----------------7-8-----------8-|
E|-0-0-0-0-0-0-0-0-0-0-----0-0-----|-0-000-000-000-0-----------------|

Riff J (8x):
   PM..........................
e|---------------------------------|
B|---------------------------------|
G|---------------------------------|
D|-----------------------------3---|
A|-2-2-2-2-3-2-2-2-3-2-2-2-2-2-----|
E|---------------------------------|

Riff K (2x):
                                       PM...........................................
e|---------------------------------|-------------------------------------------------|
B|---------------------------------|-------------------------------------------------|
G|---------------------------------|-4-----------------------------------------------|
D|-5---------------8---------------|-4-----------------------------------------------|
A|-5---------------8---------------|-2-----------------------------------------------|
E|-3---------------6---------------|---00000-00000-00000-00000-00000-00000-00003-2-3-|

Riff L (2x):
       PM..    PM..     PM..             PM..    PM..    PM..         
e|---------------------------------|---------------------------------|
B|---------------------------------|---------------------------------|
G|---------------------------------|---------------------------------|
D|-7-------7-------7-------7---7---|-6-------6-------6-------6---6---|
A|-7-------7-------7-------7---7---|-6-------6-------6-------6---6---|
E|-5---5-5-5---5-5-5---5-5-5---5---|-4---4-4-4---4-4-4---4-4-4---4---|

   PM..  PM..  PM..  PM..  PM..      PM..  PM..  PM..  PM..  PM..
e|---------------------------------|---------------------------------|
B|---------------------------------|---------------------------------|
G|---------------------------------|---------------------------------|
D|---------------------------------|---------------------------------|
A|-7-7-8-7-7-8-7-7-8-7-7-8-7-7-8p7-|-7-7-8-7-7-8-7-7-8-7-7-8-7-7-8p7-|
E|---------------------------------|---------------------------------|
  
Riff M (2x):
  Gtr. I
       PM..    PM..     PM..             PM..    PM..    PM..         
e|---------------------------------|---------------------------------|
B|---------------------------------|---------------------------------|
G|---------------------------------|---------------------------------|
D|-7-------------------------------|-6-------------------------------|
A|-7-------------------------------|-6-------------------------------|
E|-5-------------------------------|-4-------------------------------|
 |                                                                   |
 |Gtr II                                                             |
 |PM..                              PM..                             |
e|---------------------------------|---------------------------------|
B|------9-10-9-----12--10--9-------|------9-10-9-----12--10--9-------|
G|-9-10--------9-------------10-9--|-9-10--------9-------------10-9--|
D|---------------------------------|---------------------------------|
A|---------------------------------|---------------------------------|
E|---------------------------------|---------------------------------|
  
  
Riff N (while solo) 2x:
       PM..    PM..     PM..   PM..      PM..    PM..    PM..    PM..
e|---------------------------------|---------------------------------|
B|---------------------------------|---------------------------------|
G|---------------------------------|---------------------------------|
D|-7-------7-------7-------7-------|-6-------6-------6-------6-------|
A|-7-------7-------7-------7-------|-6-------6-------6-------6-------|
E|-5--5555-5--5555-5--5555-5--5555-|-4--4444-4--4444-4--4444-4--4444-|

Riff O (while solo) 2x:
      PM..    PM..    PM..              PM..    PM..    PM..
e|---------------------------------|---------------------------------|
B|---------------------------------|---------------------------------|
G|-9-------9-------9-------9---8---|-10------10------10------10--8---|
D|-9-------9-------9-------9---8---|-10------10------10------10--8---|
A|-7--7777-7--7777-7--7777-7---6---|-8--8888-8--8888-8--8888-8---6---|
E|---------------------------------|---------------------------------|

Repeat Riff N 2x
Repeat Riff O 2x
Repeat Riff F 4x
Repeat Riff C 2x
Repeat Riff A 2x



************************************

| /   slide up
| \   slide down
| h   hammer-on
| p   pull-off
| ~   vibrato
| +   harmonic
| x   Mute note
| b   Bend
| pb  Pre-bend
| br  Bend release
| pbr Pre-bend release
| brb Bend release bend

************************************
Tap to rate this tab
 
# A B C D E F G H I J K L M N O P Q R S T U V W X Y Z