Song name
# A B C D E F G H I J K L M N O P Q R S T U V W X Y Z

Sepultura - Dusted tab

These are corrections from the original tab on here. I have seen videos of Max playing 
this this way. The tuning is actually A# standard, but you can easily play this in the 
drop tuning.

C-|--------------------------------------------------------------------------|
G-|--------------------------------------------------------------------------|
D#|--------------------------------------------------------------------------|
A#|------------------------0-------------------------------------------------|
F-|4-3---1-3---4-3---1-3---0-------------------------------------------------|
A#|4-3---1-3---4-3---1-3---0-------------------------------------------------|
   * *   * *   * *   * *
C-|--------------------------------------------------------------------------|
G-|--------------------------------------------------------------------------|
D#|--------------------------------------------------------------------------|
A#|4-3---1-3---4-3---1-3---0-------------------------------------------------|
F-|4-3---1-3---4-3---1-3---0-------------------------------------------------|
A#|4-3---1-3---4-3---1-3---0-------------------------------------------------|

C-|--------------------------------------------------------------------------|
G-|--------------------------------------------------------------------------|
D#|--------------------------------------------------------------------------|
A#|--------------------------------------------------------------------------|
F-|--------------------------------------------------------------------------|
A#|0-2---0-3~------0-4---0-6~------------------------------------------------|

C-|--------------------------------------------------------------------------|
G-|--------------------------------------------------------------------------|
D#|--------------------------------------------------------------------------|
A#|0--2--0--3-------0--4--0--6-----------------------------------------------|
F-|0--2--0--3-------0--4--0--6-----------------------------------------------|
A#|0--2--0--3-------0--4--0--6-----------------------------------------------|

C-|--------------------------------------------------------------------------|
G-|--------------------------------------------------------------------------|
D#|--------------------------------------------------------------------------|
A#|0-2---0-3-------0-2---0-3-------0-2---0-3---------7-------6---------------|
F-|0-2---0-3-------0-2---0-3-------0-2---0-3---------7-------6---------------|
A#|0-2---0-3-------0-2---0-3-------0-2---0-3-------0-7-----0-6---------------|
   *     *         *     *         *     *         *       *
C-|--------------------------------------------------------------------------|
G-|--------------------------------------------------------------------------|
D#|--------------------------------------------------------------------------|
A#|0-2---0-3-------0-2---0-3-------0-2---0-3-------0-2---0-3-----------------|
F-|0-2---0-3-------0-2---0-3-------0-2---0-3-------0-2---0-3-----------------|
A#|0-2---0-3-------0-2---0-3-------0-2---0-3-------0-2---0-3-----------------|
   *     *         *     *         *     *         *     *
C-|--------------------------------------------------------------------------|
G-|--------------------------------------------------------------------------|
D#|--------------------------------------------------------------------------|
A#|--1-----0---------1-----0---------1-----0---------1-----0-----------------|
F-|0-1---0-0-------0-1---0-0-------0-1---0-0-------0-1---0-0-----------------|
A#|0-1---0-0-------0-1---0-0-------0-1---0-0-------0-1---0-0-----------------|
   *     *         *     *         *     *         *     *

C-|--------------------------------------------------------------------------|
G-|--------------------------------------------------------------------------|
D#|--------------------------------------------------------------------------|
A#|3-----4-------3-----4-------3-----4---------------------------------------|
F-|3-----4-------3-----4-------3-----4---------------------------------------|
A#|3-----4-------3-----4-------3-----4---------------------------------------|

C-|--------------------------------------------------------------------------|
G-|--------------------------------------------------------------------------|
D#|--------------------------------------------------------------------------|
A#|3-----4---0---3-----4---0---3-----4---0---3---4---3-----------------------|
F-|3-----4---0---3-----4---0---3-----4---0---3---4---3-----------------------|
A#|3-----4---0---3-----4---0---3-----4---0---3---4---3-----------------------|

C-|--------------------------------------------------------------------------|
G-|--------------------------------------------------------------------------|
D#|--------------------------------------------------------------------------|
A#|3-------------------------------------------------------------------------|
F-|3-------------------------------------------------------------------------|
A#|3-------------------------------------------------------------------------|

C-|--------------------------------------------------------------------------|
G-|--------------------------------------------------------------------------|
D#|--------------------------------------------------------------------------|
A#|4-----3---3---4-----3---3---0-----3---3---0-----3---3---------------------|
F-|2-----3---3---2-----3---3---0-----3---3---0-----3---3---------------------|
A#|------3---3---------3---3---0-----3---3---0-----3---3---------------------|

C-|--------------------------------------------------------------------------|
G-|--------------------------------------------------------------------------|
D#|--------------------------------------------------------------------------|
A#|3------------------------------7-\-6---6---9-----9------------------------|
F-|3------------------------------7-\-6---6---9-----9------------------------|
A#|3------------------------------7-\-6---6---9-----9------------------------|

C-|--------------------------------------------------------------------------|
G-|--------------------------------------------------------------------------|
D#|--------------------------------------------------------------------------|
A#|0-------------------------------------------------------------------------|
F-|0-------------------------------------------------------------------------|
A#|0-------------------------------------------------------------------------|

C-|--------------------------------------------------------------------------|
G-|--------------------------------------------------------------------------|
D#|--------------------------------------------------------------------------|
A#|--------------------------------------------------------------------------|
F-|--------------------------------------------------------------------------|
A#|0h1-1---1---0h1---1---0h1-------------------------------------------------|

C-|--------------------------------------------------------------------------|
G-|--------------------------------------------------------------------------|
D#|--------------------------------------------------------------------------|
A#|0-------------------------------------------------------------------------|
F-|0-------------------------------------------------------------------------|
A#|0-------------------------------------------------------------------------|
Tap to rate this tab
 
# A B C D E F G H I J K L M N O P Q R S T U V W X Y Z