Song name
# A B C D E F G H I J K L M N O P Q R S T U V W X Y Z

Sepultura - Cut Throat tab

Artist: Sepultura
Song: Cut-Throat
Album: Roots

Tuned down 2 1/2 steps

e|-------------------------------------|
B|-------------------------------------|
G|-------------------------------------|
D|-------------------------------------|
A|-------------------------------------|
E|--0-0-0-0-0-0-0-0-0-0-0-0-0^1-1-1^2--|

e|------------------------------|
B|------------------------------|
G|------------------------------|
D|------------------------------|
A|------2-------2----2^3-3-3^4--|
E|--0-0-0---0-0-0----0^1-1-1^2--|

e|-------------------------|
B|-------------------------|
G|-------------------------|
D|-------------------------|
A|--7-7-7-7-7-7^8-8-8^9-9--|
E|-------------------------|

e|-----------------------------|
B|-----------------------------|
G|-----------------------------|
D|--9-9-9-9-9-9/10-10-10/11-11-|
A|--7-7-7-7-7-7/8--8--8 /9--9--|
E|-----------------------------|

e|-----------|
B|-----------|
G|-----------|
D|-----------|
A|--2--------|
E|--0--------|

e|-----------------------|
B|-----------------------|
G|-----------------------|
D|-----4-3-----4-3--4-3--|
A|--2--2-1--2--2-1--2-1--|
E|--0-------0------------|

e|-------------------|
B|-------------------|
G|-------------------|
D|-------------------|
A|-------------------|
E|--2-2-2-2-2-2-2-0--|
	
Tap to rate this tab
 
# A B C D E F G H I J K L M N O P Q R S T U V W X Y Z