Song name
# A B C D E F G H I J K L M N O P Q R S T U V W X Y Z

Sepultura - Mind War tab

  Title: Mind War
  Artist: Sepultura
the.pariah@hotmail.com


All guitars tunned one whole step down ( D G C F A D )

* Palm Mute

\ Slide Down

/Slide From Above

~ Let Ring

D |----------------------------------------------------|
A |----------------------------------------------------|(Lower Volume)
F |----------------------------------------------------|
C |--7--5--5--6-----6--6--6--6--6--6--6--6--6--6--6----| 2x
G |--7--5--5--6-----6--6--6--6--6--6--6--6--6--6--6----|
D |--5--3--3--4-----4--4--4--4--4--4--4--4--4--4--4----|


D |----------------------------------------------------|
A |----------------------------------------------------|(Left Channel, normal volume)
F |----------------------------------------------------|
C |--7--5--5--6-----6--6--6--6--6--6--6--6--6--6--6----| 2x
G |--7--5--5--6-----6--6--6--6--6--6--6--6--6--6--6----|
D |--5--3--3--4-----4--4--4--4--4--4--4--4--4--4--4----|


D |----------------------------------------------------|
A |----------------------------------------------------|(Both Channels)
F |----------------------------------------------------|
C |--7--5--5--6-----6--6--6--6--6--6--6--6--6--6--6----| 4x
G |--7--5--5--6-----6--6--6--6--6--6--6--6--6--6--6----|
D |--5--3--3--4-----4--4--4--4--4--4--4--4--4--4--4----|


D |------------------|
A |------------------|
F |------------------| 4x
C |-7--5--5--6\------|
G |-7--5--5--6\------|
D |-5--3--3--4\------|


D |----------------------------------------------------|
A |----------------------------------------------------|
F |----------------------------------------------------|
C |--7--5--5--6-----6--6--6--6--6--6--6--6--6--6--6----| 4x
G |--7--5--5--6-----6--6--6--6--6--6--6--6--6--6--6----|
D |--5--3--3--4-----4--4--4--4--4--4--4--4--4--4--4----|


D |------------------|
A |------------------|
F |------------------| 4x
C |-7--5--5--6\------|
G |-7--5--5--6\------|
D |-5--3--3--4\------|


D |--------------------------------|
A |--------------------------------|
F |--------------------------------| 4x
C |--------------------------------|
G |--------------------------------|
D |-5-4-3-5-4-3--4-3--000-3-000-3--|
                      ***   ***

D |------------------|
A |------------------|
F |------------------| 8x*  (*Andreas Kisser keeps strumming the last note when playing live)
C |-7--5--5--6~------|
G |-7--5--5--6~------|
D |-5--3--3--4~------|


D |--------------------------------|
A |--------------------------------|
F |--------------------------------| 4x
C |--------------------------------|
G |--------------------------------|
D |-5-4-3-5-4-3--4-3--000-3-000-3--|
                      ***   ***

D |----------------------------------------------------|
A |----------------------------------------------------|
F |----------------------------------------------------|
C |--7--5--5--6-----6--6--6--6--6--6--6--6--6--6--6----| 4x (With Flanger)
G |--7--5--5--6-----6--6--6--6--6--6--6--6--6--6--6----|
D |--5--3--3--4-----4--4--4--4--4--4--4--4--4--4--4----|

D |------------------|
A |------------------|
F |------------------| 8x*
C |-7--5--5--6~------|
G |-7--5--5--6~------|
D |-5--3--3--4~------|


GUITAR I
D |----------------------------------------------------|
A |----------------------------------------------------|
F |----------------------------------------------------|
C |-6~--6~--6~--/6~--6~--6~---/6~--6~--6~--/7~--7~--7~-| 8x
G |-6~--6~--6~--/6~--6~--6~---/6~--6~--6~--/7~--7~--7~-|
D |-4~--4~--4~--/4~--4~--4~---/4~--4~--4~--/5~--5~--5~-|

GUITAR II
D |----------------------------------------------------|
A |-9~--9~--9~--/9~--9~--9~---/9~--9~--9~--/9~--9~--9~-|
F |----------------------------------------------------|
C |-6~--6~--6~--/6~--6~--6~---/6~--6~--6~--/6~--6~--6~-| 2x (After Guitar I plays 2x)
G |----------------------------------------------------|
D |----------------------------------------------------|


~~~Sorry but I couldn't figure out the solo (help is very appreciated)~~~




D |----------------------------------------------------|
A |----------------------------------------------------|
F |----------------------------------------------------|
C |-7--5--5--6-----6--6--6--6--6--6--6--6--6--6--6-----|
G |-7--5--5--6-----6--6--6--6--6--6--6--6--6--6--6-----|
D |-5--3--3--4-----4--4--4--4--4--4--4--4--4--4--4-----|
                  |----------Left Channel---------|


D |------------------|
A |------------------|
F |------------------| 8x* 
C |-7--5--5--6~------|
G |-7--5--5--6~------|
D |-5--3--3--4~------|


D |----------------------------------------------------|
A |----------------------------------------------------|
F |----------------------------------------------------|
C |-7--5--5--6-----6--6--6--6--6--6--6--6--6--6--6-----|
G |-7--5--5--6-----6--6--6--6--6--6--6--6--6--6--6-----|
D |-5--3--3--4-----4--4--4--4--4--4--4--4--4--4--4-----|


D |----------------------------------------------------|
A |----------------------------------------------------|
F |----------------------------------------------------|
C |-7--5--5--6-----6--6--6--6--6--6--6--6--6--6--6-----|
G |-7--5--5--6-----6--6--6--6--6--6--6--6--6--6--6-----|
D |-5--3--3--4-----4--4--4--4--4--4--4--4--4--4--4-----|
                  |----------Left Channel---------|


D |----------------------------------------------------|
A |----------------------------------------------------|
F |----------------------------------------------------|
C |-7--5--5--6-----6--6--6--6--6--6--6--6--6--6--6-----|
G |-7--5--5--6-----6--6--6--6--6--6--6--6--6--6--6-----|
D |-5--3--3--4-----4--4--4--4--4--4--4--4--4--4--4-----|
                  |---------Right Channel---------|

D |-------------|
A |-------------|
F |-------------|
C |-7--5--5--6--|
G |-7--5--5--6--|
D |-5--3--3--4--|
Tap to rate this tab
 
# A B C D E F G H I J K L M N O P Q R S T U V W X Y Z