Song name
# A B C D E F G H I J K L M N O P Q R S T U V W X Y Z

Sepultura - Born Stubborn tab

-------------------------------------------------------------------------------
			     Sepultura - Born Stubborn
-------------------------------------------------------------------------------
Tuning: D G C F A D

d|---------------------------------------------------------------------------|
A|---------------------------------------------------------------------------|
F|---------------------------------------------------------------------------|
C|---------------------------------------------------------------------------|
G|2222-22-2------------------------------------------------------------------|
D|0000-00-0------------------------------------------------------------------|
  **** ** *
d|---------------------------------------------------------------------------|
A|---------------------------------------------------------------------------|
F|9-------13---14---9-------13---14---9-------13---14---9-------13---10------|
C|x-------x----x----x-------x----x----x-------x----x----x-------x----x-------|
G|7-------11---12---7-------11---12---7-------11---12---7-------11---8-------|
D|0-----------------0-----------------0-----------------0--------------------|

d|---------------------------------------------------------------------------|
A|---------------------------------------------------------------------------|
F|9999999999999910^----------------------------------------------------------|
C|xxxxxxxxxxxxxx-------------------------------------------------------------|
G|77777777777777-------------------------------------------------------------|
D|00000000000000-------------------------------------------------------------|

d|---------------------------------------------------------------------------|
A|---------------------------------------------------------------------------|
F|--------13---14-----------13---14-----------13---14-----------13---14------|
C|2--22---x----x----2--22---x----x----2--22---x----x----2--22---x----x-------|
G|2--22---11---12---2--22---11---12---2--22---11---12---2--22---11---12------|
D|0--00-------------0--00-------------0--00-------------0--00----------------|

d|---------------------------------------------------------------------------|
A|---------------------------------------------------------------------------|
F|---------------------------------------------------------------------------|
C|---------------------------------------------------------------------------|
G|2222-22-3-5-6-5------------------------------------------------------------|
D|0000-00-1-3-4-3------------------------------------------------------------|
  **** ** * * * *
d|---------------------------------------------------------------------------|
A|---------------------------------------------------------------------------|
F|---------------------------------------------------------------------------|
C|---------------------------------------------------------------------------|
G|2-2---8-----8--2-2---8-----8--2-2---8-----8--2-2---8-----8-----------------|
D|0-0---6--0--6--0-0---6--0--6--0-0---6--0--6--0-0---6--0--6-----------------|

d|---------------------------------------------------------------------------|
A|---------------------------------------------------------------------------|
F|---------------------------------------------------------------------------|
C|---------------------------------------------------------------------------|
G|3-2---2-3-5-6-5------------------------------------------------------------|
D|1-0---0-1-3-4-3------------------------------------------------------------|

d|---------------------------------------------------------------------------|
A|---------------------------------------------------------------------------|
F|---------------------------------------------------------------------------|
C|---------------------------------------------------------------------------|
G|--------8-----8------------------------------------------------------------|
D|000000006--0--6------------------------------------------------------------|
  ********

| *  palm mute
| ^  bend
| /  slide up
| \  slide down
| h  hammer-on
| p  pull-off
| ~  vibrato
| +  harmonic
| x  Mute note
==============================================================================
Tap to rate this tab
 
# A B C D E F G H I J K L M N O P Q R S T U V W X Y Z