Song name
# A B C D E F G H I J K L M N O P Q R S T U V W X Y Z

Sepultura - A-lex Ii tab

-------------------------------------------------------------------------------
                             A-LEX II - Sepultura
-------------------------------------------------------------------------------
Tabbed by:BaronLundi

Tuning: Bb Eb Ab Db F Bb

Q=109

4/4

     PM  PM  PM|       PM  PM  PM|       PM----------------------------|
    E E E E E E E E   E E E E E E E E   E E E E E E E E   E E E E E E E E  4x
||------------------|-----------------|-----------------|------------------||
||o-----------------|-----------------|-----------------|-----------------o||
||------------------|-----------------|-----------------|------------------||
||------------------|-----------------|-----------------|------------------||
||o-8---8---8-----8-|-8---8---8-----8s|=5-5-5-5-5-5-5-5-|-5-5-5-5-5-5-5-5-o||
||--9-0-9-0-9-0-0-0-|-9-0-9-0-9-0-0-9s|=6-6-6-6-6-6-6-6-|-6-6-6-6-6-6-6-6--||


    E E E  E  +E     E  S S E   E E E  E  +E     E  S S E
||----------------------------|----------------------------||
||o---------------------------|---------------------------o||
||----------------------------|----------------------------||
||----------------------------|----------------------------||
||o---------------------------|---------------------------o||
||--6p0-6h10-(10)b12-6-10p6p0-|-6p0-6h10-(10)b12-6-10p6p0--||


    PM----------------------------|     PM  PM  PM|       PM  PM  PM|
  E E E E E E E E   E E E E E E E E   E E E E E E E E   E E E E E E E E
|-----------------|-----------------|-----------------|-----------------|
|-----------------|-----------------|-----------------|-----------------|
|-----------------|-----------------|-----------------|-----------------|
|-----------------|-----------------|-----------------|-----------------|
|-5-5-5-5-5-5-5-5-|-5-5-5-5-5-5-5-5-|-5---5---5-----5-|-5---5---5-----5-|
|-6-6-6-6-6-6-6-6-|-6-6-6-6-6-6-6-6-|-6-0-6-0-6-0-0-0-|-6-0-6-0-6-0-0-6-|


  W          +W
|----------|--------*|
|----------|--------*|
|----------|--------*|
|----------|--------*|
|-2--------|-(2)----*|
|-0--------|-(0)----*|

************************************

| /   slide up
| \   slide down
| h   hammer-on
| p   pull-off
| ~   vibrato
| +   harmonic
| x   Mute note
| b   Bend
| pb  Pre-bend
| br  Bend release
| pbr Pre-bend release
| brb Bend release bend

************************************
Tap to rate this tab
# A B C D E F G H I J K L M N O P Q R S T U V W X Y Z