Song name
# A B C D E F G H I J K L M N O P Q R S T U V W X Y Z

Sepultura - Ostia tab

                                      OSTIA
                            As recorded by Sepultura
                         (From the 2006 Album DANTE XXI)

Words by Andreas Kisser 
Music by Igor Cavalera, Derrick Green & Andreas Kisser

Transcribed by BaronLundi

Tuning D G C F A D


Q=160
Gtr I
    E  E   a   E  E E  E   a   E  E   E  E   a   E  E E  E   a   E  E
||----------------------------------|---------------------------------|
||o---------------------------------|---------------------------------|
||----------------------------------|---------------------------------|
||----14-(14)s15s14---14-(14)s15s14-|---14-(14)s15s14---14-(14)s15s14-|
||o---------------------------------|---------------------------------|
||--0-12-(12)s13s12-0-12-(12)s13s12-|-0-12-(12)s13s12-0-12-(12)s13s12-|


  E E  a  E E E E  a  E E   E E  a  E E E E  a  E E  4x
|-------------------------|--------------------------||
|-------------------------|-------------------------o||
|-------------------------|--------------------------||
|-------------------------|--------------------------||
|-6-6-(6)s7s6-6-6-(6)s7s6-|-6-6-(6)s7s6-6-6-(6)s7s6-o||
|-4-4-(4)s5s4-4-4-(4)s5s4-|-4-4-(4)s5s4-4-4-(4)s5s4--||


    E  S  S  E E  E E E E   E E E E E E Q
||------------------------|-----------------||
||o-----------------------|----------------o||
||------------------------|-----------------||
||------------------------|-----------------||
||o-----------------------|-----3s5---3s6--o||
||--0-10S13S10-0-10S7-0-7S|=4-0-1s3-0-1s4---||


    E  S  S  E E  E E E E   E E E E E E Q
||------------------------|-----------------||
||o-----------------------|----------------o||
||------------------------|-----------------||
||------------------------|-----------------||
||o-----------------------|-----3s5---3s6--o||
||--0-10S13S10-0-10S7-0-7S|=4-0-1s3-0-1s4---||
|
|   Gtr I
|   E  S  S  E E  E E E E   E E H.
||------------------------|-----------------||
||o-----------------------|----------------o||
||------------------------|-----------------||
||------------------------|-----------------||
||o----8S12S=8----8S5---5S|=2--------------o||
||--0----------0------0---|-----------------||


    E  E   a   E  E E  E   a   E  E   E  E   a   E  E E  E   a   E  E
||----------------------------------|---------------------------------|
||o---------------------------------|---------------------------------|
||----------------------------------|---------------------------------|
||----14-(14)s15s14---14-(14)s15s14-|---14-(14)s15s14---14-(14)s15s14-|
||o---------------------------------|---------------------------------|
||--0-12-(12)s13s12-0-12-(12)s13s12-|-0-12-(12)s13s12-0-12-(12)s13s12-|


  E E  a  E E E E  a  E E   E E  a  E E E E  a  E E  4x
|-------------------------|--------------------------||
|-------------------------|-------------------------o||
|-------------------------|--------------------------||
|-------------------------|--------------------------||
|-6-6-(6)s7s6-6-6-(6)s7s6-|-6-6-(6)s7s6-6-6-(6)s7s6-o||
|-4-4-(4)s5s4-4-4-(4)s5s4-|-4-4-(4)s5s4-4-4-(4)s5s4--||


    E  S  S  E E  E E E E   E E E E E E Q
||------------------------|-----------------||
||o-----------------------|----------------o||
||------------------------|-----------------||
||------------------------|-----------------||
||o-----------------------|-----3s5---3s6--o||
||--0-10S13S10-0-10S7-0-7S|=4-0-1s3-0-1s4---||


    E  S  S  E E  E E E E   E E E E E E Q
||------------------------|-----------------||
||o-----------------------|----------------o||
||------------------------|-----------------||
||------------------------|-----------------||
||o-----------------------|-----3s5---3s6--o||
||--0-10S13S10-0-10S7-0-7S|=4-0-1s3-0-1s4---||
|
|   Gtr I
|   E  S  S  E E  E E E E   E E H.
||------------------------|-----------------||
||o-----------------------|----------------o||
||------------------------|-----------------||
||------------------------|-----------------||
||o----8S12S=8----8S5---5S|=2--------------o||
||--0----------0------0---|-----------------||


Q=80
                                                                         \1
  W           W                  W                      H           Q   +Q
|----------|-------------------|---------------------|--------------0---(0)----|
|----------|-------------------|---------------------|--------------0---(0)----|
|----------|-------------------|---------------------|-------------------------|
|-6--------|--2----------------|-6-------------------|--2----------------------|
|-6--------|--2----------------|-6-------------------|--2----------------------|
|-4--------|--0----------------|-4-------------------|--0----------------------|
|
| Gtr II
| ~
|                                       |3-|
| W           Q  E +E   Q.   E   H      Q  E  +E   E    Q   +E   E  Q   +E   E
|----------|-------------------|---------------------|-------------------------|
|----------|-------------------|---------------------|-------------------------|
|-8--------|-11--9-(9)\-4----6-|-8----/13-15-(15)h16-|-16--(16)-18-16--(16)\-6-|
|----------|-------------------|---------------------|-------------------------|
|----------|-------------------|---------------------|-------------------------|
|----------|-------------------|---------------------|-------------------------|


                                                         \1
  W               W             W             H     Q   +Q
|---------------|-------------|-------------|-------0---(0)----|
|---------------|-------------|-------------|-------0---(0)----|
|---------------|-------------|-------------|------------------|
|-6-------------|-2-----------|-6-----------|-2----------------|
|-6-------------|-2-----------|-6-----------|-2----------------|
|-4-------------|-0-----------|-4-----------|-0----------------|
|
| ~~
|        |-3-|         |-3-|         |-3-|    |-3-| |---3---|
| Q.   E Q Q Q    H    Q Q Q    H    Q Q Q    Q Q Q Q Q     Q
|---------------|-------------|-------------|------------------|
|---------------|-------------|-------------|------------------|
|-8----9-8-6-8--|-4----6S1-3--|-4----1-3----|-1----------------|
|---------------|-------------|----------4--|---2-4-1-2--------|
|---------------|-------------|-------------|---------------4--|
|---------------|-------------|-------------|------------------|


                                                            \1
  W                W            W                H     Q   +Q
|----------------|------------|---------------|--------0---(0)---|
|----------------|------------|---------------|--------0---(0)---|
|----------------|------------|---------------|------------------|
|-6--------------|-2----------|-6-------------|--2---------------|
|-6--------------|-2----------|-6-------------|--2---------------|
|-4--------------|-0----------|-4-------------|--0---------------|
|
| ~
|        |-3--|                 |-3-| |-3-|
| Q  Q  +Q  Q Q    H.      Q    Q Q Q Q Q Q      Q  Q  Q.      E
|----------------|------------|---------------|------------------|
|----------------|------------|---------------|------------------|
|-------------1--|-1-------3--|-4-1-3-4S6S8---|-11--9--8-------6-|
|-1---------1----|------------|---------------|------------------|
|----2--(2)------|------------|---------------|------------------|
|----------------|------------|---------------|------------------|


                                                                        \1
  W                          W                   W            H     Q  +Q
|------------------------|--------------------|-------------|-------0--(0)--|
|------------------------|--------------------|-------------|-------0--(0)--|
|------------------------|--------------------|-------------|---------------|
|-6----------------------|---2----------------|--6----------|-2-------------|
|-6----------------------|---2----------------|--6----------|-2-------------|
|-4----------------------|---0----------------|--4----------|-0-------------|
|
|              |--3---|             |--3---|
| E +E    Q   +Q   Q  Q      H     +Q   Q  Q     H.      Q    H     H
|------------------------|--------------------|-------------|---------------|
|------------------------|--------------------|-------------|---------------|
|-8-(8)/-13--(13)-15-16--|-/20----(20)-13-15--|-16-------6--|-8----13-------|
|------------------------|--------------------|-------------|---------------|
|------------------------|--------------------|-------------|---------------|
|------------------------|--------------------|-------------|---------------|


Q=160
    E  S  S  E E  E E E E   E E E E E E Q
||------------------------|-----------------||
||o-----------------------|----------------o||
||------------------------|-----------------||
||------------------------|-----------------||
||o-----------------------|-----3s5---3s6--o||
||--0-10S13S10-0-10S7-0-7S|=4-0-1s3-0-1s4---||


    E  S  S  E E  E E E E   E E E E E E Q
||------------------------|-----------------||
||o-----------------------|----------------o||
||------------------------|-----------------||
||------------------------|-----------------||
||o-----------------------|-----3s5---3s6--o||
||--0-10S13S10-0-10S7-0-7S|=4-0-1s3-0-1s4---||
|
|   Gtr I
|   E  S  S  E E  E E E E   E E H.
||------------------------|-----------------||
||o-----------------------|----------------o||
||------------------------|-----------------||
||------------------------|-----------------||
||o----8S12S=8----8S5---5S|=2--------------o||
||--0----------0------0---|-----------------||


    E  E   a   E  E E  E   a   E  E   E  E   a   E  E E  E   a   E  E
||----------------------------------|---------------------------------|
||o---------------------------------|---------------------------------|
||----------------------------------|---------------------------------|
||----14-(14)s15s14---14-(14)s15s14-|---14-(14)s15s14---14-(14)s15s14-|
||o---------------------------------|---------------------------------|
||--0-12-(12)s13s12-0-12-(12)s13s12-|-0-12-(12)s13s12-0-12-(12)s13s12-|


  E E  a  E E E E  a  E E   E E  a  E E E E  a  E E  4x
|-------------------------|--------------------------||
|-------------------------|-------------------------o||
|-------------------------|--------------------------||
|-------------------------|--------------------------||
|-6-6-(6)s7s6-6-6-(6)s7s6-|-6-6-(6)s7s6-6-6-(6)s7s6-o||
|-4-4-(4)s5s4-4-4-(4)s5s4-|-4-4-(4)s5s4-4-4-(4)s5s4--||


  Q  H.        W
|------------|------*|
|------------|------*|
|------------|------*|
|------------|------*|
|-2----------|------*|
|-0----------|------*|


Duration Legend
---------------
W - whole; H - half; Q - quarter; E - 8th; S - 16th; T - 32nd; X - 64th; a - acciaccatura
+ - note tied to previous; . - note dotted; .. - note double dotted
Uncapitalized letters represent notes that are staccato (1/2 duration)
Irregular groupings are notated above the duration line
Duration letters will always appear directly above the note/fret number it represents the
duration for.  Duration letters with no fret number below them represent rests.  Multi-
bar rests are notated in the form Wxn, where n is the number of bars to rest for.  Low
melody durations appear below the staff

Tablature Legend
----------------
 h   - hammer-on
 p   - pull-off
 b   - bend
 pb  - pre-bend
 r   - bend release (if no number after the r, then release immediately)
 /\  - slide into or out of (from/to "nowhere")
 s   - legato slide
 S   - shift slide
  - natural harmonic
[n]  - artificial harmonic
n(n) - tapped harmonic
 ~   - vibrato
 tr  - trill
 T   - tap
 TP  - trem. picking
 PM  - palm muting
\n/  - tremolo bar dip; n = amount to dip
 \n  - tremolo bar down
 n/  - tremolo bar up
/n\  - tremolo bar inverted dip
 =   - hold bend; also acts as connecting device for hammers/pulls
 <>  - volume swell (louder/softer)
 x   - on rhythm slash represents muted slash
 o   - on rhythm slash represents single note slash

Misc Legend
-----------
 |  - bar
||  - double bar
||o - repeat start
o|| - repeat end
*|  - double bar (ending)
 :  - bar (freetime)
 $  - Segno
 &  - Coda
Tempo markers -  = BPM(8/16=s8/s16), where s8 = swing 8ths, s16 = swing 16ths
Tap to rate this tab
# A B C D E F G H I J K L M N O P Q R S T U V W X Y Z