Song name
# A B C D E F G H I J K L M N O P Q R S T U V W X Y Z

Sepultura - Nuclear Seven tab

#----------------------------------PLEASE NOTE---------------------------------#
#This file is the author's own work and represents their interpretation of the #
#song. You may only use this file for private study, scholarship, or research. #
#------------------------------------------------------------------------------##

                                  NUCLEAR SEVEN
                            As recorded by Sepultura
                         (From the 2006 Album DANTE XXI)

Words by Andreas KisserMusic by Igor Cavalera, Derrick Green & Andreas Kisser
Arranged by Sepultura
Transcribed by BaronLundi

Tuning D G C F A D


Q=166
4/4

      PM--|   PM--|     PM--|   PM|
    E E E E E E E E   E E E E E E E E
||------------------|-----------------|
||o-----------------|-----------------|
||------------------|-----------------|
||------------------|-----------------|
||o-----------------|-----------------|
||--2-0-0-0-2-0-0-0-|-2-0-0-0-2-0-0-2S|
|
|   Gtr I
|     PM--|   PM--|     PM--|   PM|
|   E E E E E E E E   E E E E E E E E
||------------------|-----------------|
||o-----------------|-----------------|
||------------------|-----------------|
||------------------|-----------------|
||o-9-------9-------|-9-------9-----9S|
||--0-0-0-0-0-0-0-0-|-0-0-0-0-0-0-0-0-|


     PM--|    PM--|      PM--|    PM|
   E E E E  E E E E    E E E E  E E E  E   7x
|-------------------|----------------------||
|-------------------|---------------------o||
|-------------------|----------------------||
|-------------------|----------------------||
|-------------------|---------------------o||
|--3-0-0-0--3-0-0-0-|--3-0-0-0--3-0-0--3\--||
|
|    PM--|    PM--|      PM--|    PM|
|  E E E E  E E E E    E E E E  E E E  E   7x
|-------------------|----------------------||
|-------------------|---------------------o||
|-------------------|----------------------||
|-------------------|----------------------||
|-10-------10-------|-10-------10-----10\-o||
|--0-0-0-0--0-0-0-0-|--0-0-0-0--0-0-0--0---||


    PM--|   PM--|     PM--|   PM|        PM--|    PM--|      PM--|
  E E E E E E E E   E E E E E E E E    E E E E  E E E E    E E E E  Q   +Q
|-----------------|-----------------|-------------------|---------------------|
|-----------------|-----------------|-------------------|---------------------|
|-----------------|-----------------|-------------------|---------------------|
|-----------------|-----------------|-------------------|---------------------|
|-----------------|-----------------|-------------------|----------12--(12)\--|
|-2-0-0-0-2-0-0-0-|-2-0-0-0-2-0-0-2S|==3-0-0-0--3-0-0-0-|--3-0-0-0-12--(12)\--|
|
|   PM--|   PM--|     PM--|   PM|        PM--|    PM--|      PM--|
| E E E E E E E E   E E E E E E E E    E E E E  E E E E    E E E E  Q   +Q
|-----------------|-----------------|-------------------|---------------------|
|-----------------|-----------------|-------------------|---------------------|
|-----------------|-----------------|-------------------|---------------------|
|-----------------|-----------------|-------------------|---------------------|
|-9-------9-------|-9-------9-----9S|=10-------10-------|-10-------12--(12)\--|
|-0-0-0-0-0-0-0-0-|-0-0-0-0-0-0-0-0-|--0-0-0-0--0-0-0-0-|--0-0-0-0-12--(12)\--|


        PM|   PM--|     PM--|   PM|
    E E E E E E E E   E E E E E E E E
||------------------|-----------------|
||o-----------------|-----------------|
||------------------|-----------------|
||------------------|-----------------|
||o-4-------4-------|-4-------4-----4S|
||--2p0-0-0-2-0-0-0-|-2-0-0-0-2-0-0-2S|


    PM--|   PM--------|     PM--|   PM|
  E E E E E S S S S S S   E E E E E E E E
|-----------------------|-------------------||
|-----------------------|------------------o||
|-----------------------|-------------------||
|-----------------------|-------------------||
|-5-------5-------------|-5-------5-----5\-o||
|-3-0-0-0-3-0-0-0-0-0-0-|-3-0-0-0-3-0-0-3\--||


    PM----------------------------|
    E E E E E E E E   E E E E E E E E
||------------------|-----------------|
||o-----------------|-----------------|
||------------------|-----------------|
||------------------|-----------------|
||o-----------------|-----------------|
||--2-2-2-2-2-2-2-2-|-2-2-2-2-2-2-2-2S|
|
|   Gtr I
|   PM----------------------------|
|   E E E E E E E E   E E E E E E E E
||------------------|-----------------|
||o-----------------|-----------------|
||------------------|-----------------|
||------------------|-----------------|
||o-9-9-9-9-9-9-9-9-|-9-9-9-9-9-9-9-9S|
||--0-0-0-0-0-0-0-0-|-0-0-0-0-0-0-0-0-|


     PM--|    PM--|      PM--|    PM|
   E E E E  E E E E    E E E E  E E E  E    3x
|-------------------|-----------------------||
|-------------------|----------------------o||
|-------------------|-----------------------||
|-------------------|-----------------------||
|-------------------|----------------------o||
|--3-0-0-0--3-0-0-0-|--3-0-0-0--3-0-0--3\---||
|
|    PM--|    PM--|      PM--|    PM|
|  E E E E  E E E E    E E E E  E E E  E    3x
|-------------------|-----------------------||
|-------------------|----------------------o||
|-------------------|-----------------------||
|-------------------|-----------------------||
|-10-------10-------|-10-------10-----10\--o||
|--0-0-0-0--0-0-0-0-|--0-0-0-0--0-0-0--0----||


  PM----------------------------|        PM--|    PM--|      PM--|
  E E E E E E E E   E E E E E E E E    E E E E  E E E E    E E E E  Q   +Q
|-----------------|-----------------|-------------------|---------------------|
|-----------------|-----------------|-------------------|---------------------|
|-----------------|-----------------|-------------------|---------------------|
|-----------------|-----------------|-------------------|---------------------|
|-----------------|-----------------|-------------------|----------12--(12)\--|
|-2-2-2-2-2-2-2-2-|-2-2-2-2-2-2-2-2S|==3-0-0-0--3-0-0-0-|--3-0-0-0-12--(12)\--|
|
| PM----------------------------|        PM--|    PM--|      PM--|
| E E E E E E E E   E E E E E E E E    E E E E  E E E E    E E E E  Q   +Q
|-----------------|-----------------|-------------------|---------------------|
|-----------------|-----------------|-------------------|---------------------|
|-----------------|-----------------|-------------------|---------------------|
|-----------------|-----------------|-------------------|---------------------|
|-9-9-9-9-9-9-9-9-|-9-9-9-9-9-9-9-9S|=10-------10-------|-10-------12--(12)\--|
|-0-0-0-0-0-0-0-0-|-0-0-0-0-0-0-0-0-|--0-0-0-0--0-0-0-0-|--0-0-0-0-12--(12)\--|


  |---5---| |---5---| |---5---|
  S S S S S S S S S S S S S S S  Q
|----------------------------------------------|
|-7-7-7-7-7-7-7-7-7-7-7-7-7-7-7-11-------------|
|----------------------------------------------|
|-4-4-4-4-4-4-4-4-4-4-4-4-4-4-4--8-------------|
|----------------------------------------------|
|----------------------------------------------|
|
| |---5---| |---5---| |---5---|  |-----5-----|
| S S S S S S S S S S S S S S S  S  S  S  S  S
|----------------------------------------------|
|-7-7-7-7-7-7-7-7-7-7-7-7-7-7-7-11-11-11-11-11-|
|----------------------------------------------|
|----------------------------------------------|
|----------------------------------------------|
|----------------------------------------------|


   +E         Q.                       +H
|-----------------------------------------------------------------------|
|-(11)-------12-----------------------(12)------------------------------|
|-----------------------------------------------------------------------|
|--(8)--------9------------------------(9)------------------------------|
|-----------------------------------------------------------------------|
|-----------------------------------------------------------------------|
|
|   |-------5--------|  |-----5-----|   |-----5------|  |-----5-----|
|   S   S  S      S  S  S  S  S  S  S   S   S  S  S  S  S  S  S  S  S
|-----------------------------------------------------------------------|
|--11--11-12-----12-12-12-12-12-12-12--12--12-12-12-12-12-12-12-12-12---|
|-----------------------------------------------------------------------|
|-----------------------------------------------------------------------|
|-----------------------------------------------------------------------|
|-----------------------------------------------------------------------|


   |-----5-----|  |-----5-----|  |-----5-----|
   S  S  S  S  S  S  S  S  S  S  S  S  S  S  S  Q
|-------------------------------------------------------------|
|--8--8--8--8--8--8--8--8--8--8--8--8--8--8--8-11-------------|
|-------------------------------------------------------------|
|--5--5--5--5--5--5--5--5--5--5--5--5--5--5--5--8-------------|
|-------------------------------------------------------------|
|-------------------------------------------------------------|
|
|  |-----5-----|  |-----5-----|  |-----5-----|  |-----5-----|
|  S  S  S  S  S  S  S  S  S  S  S  S  S  S  S  S  S  S  S  S
|-------------------------------------------------------------|
|-12-12-12-12-12-12-12-12-12-12-12-12-12-12-12-14-14-14-14-14-|
|-------------------------------------------------------------|
|-------------------------------------------------------------|
|-------------------------------------------------------------|
|-------------------------------------------------------------|


   +E         Q.                       Q              +Q
|-----------------------------------------------------------------------|
|-(11)-------12-----------------------14-------------(14)---------------|
|-----------------------------------------------------------------------|
|--(8)--------9-----------------------11-------------(11)---------------|
|-----------------------------------------------------------------------|
|-----------------------------------------------------------------------|
|
|   |-------5--------|  |-----5-----|  |-----5-----|   |-----5------|
|   S   S  S      S  S  S  S  S  S  S  S  S  S  S  S   S   S  S  S  S
|-----------------------------------------------------------------------|
|--14--14-15-----15-15-15-15-15-15-15-17-17-17-17-17--17--17-17-17-17---|
|-----------------------------------------------------------------------|
|-----------------------------------------------------------------------|
|-----------------------------------------------------------------------|
|-----------------------------------------------------------------------|


  |---5---| |---5---| |---5---|
  S S S S S S S S S S S S S S S  Q
|----------------------------------------------|
|-7-7-7-7-7-7-7-7-7-7-7-7-7-7-7-11-------------|
|----------------------------------------------|
|-4-4-4-4-4-4-4-4-4-4-4-4-4-4-4--8-------------|
|----------------------------------------------|
|----------------------------------------------|
|
| |---5---| |---5---| |---5---|  |-----5-----|
| S S S S S S S S S S S S S S S  S  S  S  S  S
|----------------------------------------------|
|-7-7-7-7-7-7-7-7-7-7-7-7-7-7-7-11-11-11-11-11-|
|----------------------------------------------|
|----------------------------------------------|
|----------------------------------------------|
|----------------------------------------------|


   +E         Q.                       +H
|-----------------------------------------------------------------------|
|-(11)-------12-----------------------(12)------------------------------|
|-----------------------------------------------------------------------|
|--(8)--------9------------------------(9)------------------------------|
|-----------------------------------------------------------------------|
|-----------------------------------------------------------------------|
|
|   |-------5--------|  |-----5-----|   |-----5------|  |-----5-----|
|   S   S  S      S  S  S  S  S  S  S   S   S  S  S  S  S  S  S  S  S
|-----------------------------------------------------------------------|
|--11--11-12-----12-12-12-12-12-12-12--12--12-12-12-12-12-12-12-12-12---|
|-----------------------------------------------------------------------|
|-----------------------------------------------------------------------|
|-----------------------------------------------------------------------|
|-----------------------------------------------------------------------|


   |-----5-----|  |-----5-----|  |-----5-----|
   S  S  S  S  S  S  S  S  S  S  S  S  S  S  S  Q
|-------------------------------------------------------------|
|--8--8--8--8--8--8--8--8--8--8--8--8--8--8--8-11-------------|
|-------------------------------------------------------------|
|--5--5--5--5--5--5--5--5--5--5--5--5--5--5--5--8-------------|
|-------------------------------------------------------------|
|-------------------------------------------------------------|
|
|  |-----5-----|  |-----5-----|  |-----5-----|  |-----5-----|
|  S  S  S  S  S  S  S  S  S  S  S  S  S  S  S  S  S  S  S  S
|-------------------------------------------------------------|
|-12-12-12-12-12-12-12-12-12-12-12-12-12-12-12-14-14-14-14-14-|
|-------------------------------------------------------------|
|-------------------------------------------------------------|
|-------------------------------------------------------------|
|-------------------------------------------------------------|


   +Q               Q              Q              +Q
|-----------------------------------------------------------------|
|-(11)-------------12-------------14-------------(14)-------------|
|-----------------------------------------------------------------|
|--(8)--------------9-------------11-------------(11)-------------|
|-----------------------------------------------------------------|
|-----------------------------------------------------------------|
|
|   |-----5------|  |-----5-----|  |-----5-----|   |-----5------|
|   S   S  S  S  S  S  S  S  S  S  S  S  S  S  S   S   S  S  S  S
|-----------------------------------------------------------------|
|--14--14-14-14-14-15-15-15-15-15-17-17-17-17-17--17--17-17-17-17-|
|-----------------------------------------------------------------|
|-----------------------------------------------------------------|
|-----------------------------------------------------------------|
|-----------------------------------------------------------------|


      PM--|   PM--|     PM--|   PM|
    E E E E E E E E   E E E E E E E E
||------------------|-----------------|
||o-----------------|-----------------|
||------------------|-----------------|
||------------------|-----------------|
||o-----------------|-----------------|
||--2-0-0-0-2-0-0-0-|-2-0-0-0-2-0-0-2S|
|
|     PM--|   PM--|     PM--|   PM|
|   E E E E E E E E   E E E E E E E E
||------------------|-----------------|
||o-----------------|-----------------|
||------------------|-----------------|
||------------------|-----------------|
||o-9-------9-------|-9-------9-----9S|
||--0-0-0-0-0-0-0-0-|-0-0-0-0-0-0-0-0-|


     PM--|    PM--|      PM--|    PM|
   E E E E  E E E E    E E E E  E E E  E
|-------------------|-----------------------||
|-------------------|----------------------o||
|-------------------|-----------------------||
|-------------------|-----------------------||
|-------------------|----------------------o||
|--3-0-0-0--3-0-0-0-|--3-0-0-0--3-0-0--3\---||
|
|    PM--|    PM--|      PM--|    PM|
|  E E E E  E E E E    E E E E  E E E  E
|-------------------|-----------------------||
|-------------------|----------------------o||
|-------------------|-----------------------||
|-------------------|-----------------------||
|-10-------10-------|-10-------10-----10\--o||
|--0-0-0-0--0-0-0-0-|--0-0-0-0--0-0-0--0----||


   |-----5------|  |-----5-----|  |-----5-----|  |-----5-----|
   S   S  S  S  S  S  S  S  S  S  S  S  S  S  S  S  S  S  S  S
|--------------------------------------------------------------|
|--------------------------------------------------------------|
|-11--11-11-11-11-11-11-11-11-11-11-11-11-11-11-15-15-15-15-15-|
|--------------------------------------------------------------|
|--9---9--9--9--9--9--9--9--9--9--9--9--9--9--9-13-13-13-13-13-|
|--------------------------------------------------------------|
|
| Gtr II
|  ~~~
|  H.                                            Q
|--------------------------------------------------------------|
|--7--------------------------------------------11-------------|
|--------------------------------------------------------------|
|--------------------------------------------------------------|
|--------------------------------------------------------------|
|--------------------------------------------------------------|


    |-------5--------|  |-----5-----|   |-----5------|  |-----5-----|
    S   S  S      S  S  S  S  S  S  S   S   S  S  S  S  S  S  S  S  S
|-----------------------------------------------------------------------|
|-----------------------------------------------------------------------|
|--15--15-16-----16-16-16-16-16-16-16--16--16-16-16-16-16-16-16-16-16---|
|-----------------------------------------------------------------------|
|--13--13-14-----14-14-14-14-14-14-14--14--14-14-14-14-14-14-14-14-14---|
|-----------------------------------------------------------------------|
|
|             ~~~~~~~~~~~~~~~~~~~~~~~~~~~~~
|  +E         Q.                       +H
|-----------------------------------------------------------------------|
|-(11)-------12-----------------------(12)------------------------------|
|-----------------------------------------------------------------------|
|-----------------------------------------------------------------------|
|-----------------------------------------------------------------------|
|-----------------------------------------------------------------------|


   |-----5------|  |-----5-----|  |-----5-----|  |-----5-----|
   S   S  S  S  S  S  S  S  S  S  S  S  S  S  S  S  S  S  S  S
|--------------------------------------------------------------|
|--------------------------------------------------------------|
|-12--12-12-12-12-12-12-12-12-12-12-12-12-12-12-15-15-15-15-15-|
|--------------------------------------------------------------|
|-10--10-10-10-10-10-10-10-10-10-10-10-10-10-10-13-13-13-13-13-|
|--------------------------------------------------------------|
|
|  ~~~
|  H.                                            Q
|--------------------------------------------------------------|
|-11--------------------------------------------\2-------------|
|--------------------------------------------------------------|
|--------------------------------------------------------------|
|--------------------------------------------------------------|
|--------------------------------------------------------------|


   |-------5-------|  |-----5-----|  |-----5-----|  |-----5------|
   S   S  S     S  S  S  S  S  S  S  S  S  S  S  S  S   S  S  S  S
|--------------------------------------------------------------------|
|--------------------------------------------------------------------|
|-15--15-16----16-16-16-16-16-16-16-18-18-18-18-18-18--18-18-18-18---|
|--------------------------------------------------------------------|
|-13--13-14----14-14-14-14-14-14-14-16-16-16-16-16-16--16-16-16-16---|
|--------------------------------------------------------------------|
|
|                                    ~~~~~~~~~~~~~~~~~~
| +E        Q.                       Q             +Q
|--------------------------------------------------------------------|
|-(2)-------3------------------------5-------------(5)---------------|
|--------------------------------------------------------------------|
|--------------------------------------------------------------------|
|--------------------------------------------------------------------|
|--------------------------------------------------------------------|


   |-----5------|  |-----5-----|  |-----5-----|  |-----5-----|
   S   S  S  S  S  S  S  S  S  S  S  S  S  S  S  S  S  S  S  S
|--------------------------------------------------------------|
|--------------------------------------------------------------|
|-11--11-11-11-11-11-11-11-11-11-11-11-11-11-11-15-15-15-15-15-|
|--------------------------------------------------------------|
|--9---9--9--9--9--9--9--9--9--9--9--9--9--9--9-13-13-13-13-13-|
|--------------------------------------------------------------|
|
|  ~~~
|  H.                                            Q
|--------------------------------------------------------------|
|--7--------------------------------------------11-------------|
|--------------------------------------------------------------|
|--------------------------------------------------------------|
|--------------------------------------------------------------|
|--------------------------------------------------------------|


    |-------5--------|  |-----5-----|   |-----5------|  |-----5-----|
    S   S  S      S  S  S  S  S  S  S   S   S  S  S  S  S  S  S  S  S
|-----------------------------------------------------------------------|
|-----------------------------------------------------------------------|
|--15--15-16-----16-16-16-16-16-16-16--16--16-16-16-16-16-16-16-16-16---|
|-----------------------------------------------------------------------|
|--13--13-14-----14-14-14-14-14-14-14--14--14-14-14-14-14-14-14-14-14---|
|-----------------------------------------------------------------------|
|
|             ~~~~~~~~~~~~~~~~~~~~~~~~~~~~~
|  +E         Q.                       +H
|-----------------------------------------------------------------------|
|-(11)-------12-----------------------(12)------------------------------|
|-----------------------------------------------------------------------|
|-----------------------------------------------------------------------|
|-----------------------------------------------------------------------|
|-----------------------------------------------------------------------|


   |-----5------|  |-----5-----|  |-----5-----|  |-----5-----|
   S   S  S  S  S  S  S  S  S  S  S  S  S  S  S  S  S  S  S  S
|--------------------------------------------------------------|
|--------------------------------------------------------------|
|-16--16-16-16-16-16-16-16-16-16-16-16-16-16-16-18-18-18-18-18-|
|--------------------------------------------------------------|
|-14--14-14-14-14-14-14-14-14-14-14-14-14-14-14-16-16-16-16-16-|
|--------------------------------------------------------------|
|
|  ~~~
|  H.                                            Q
|--------------------------------------------------------------|
|-11--------------------------------------------\2-------------|
|--------------------------------------------------------------|
|--------------------------------------------------------------|
|--------------------------------------------------------------|
|--------------------------------------------------------------|


   |-------5-------|  |-----5-----|  |-----5-----|  |-----5------|
   S   S  S     S  S  S  S  S  S  S  S  S  S  S  S  S   S  S  S  S
|--------------------------------------------------------------------|
|--------------------------------------------------------------------|
|-18--18-18----18-18-19-19-19-19-19-21-21-21-21-21-21--21-21-21-21---|
|--------------------------------------------------------------------|
|-16--16-16----16-16-17-17-17-17-17-19-19-19-19-19-19--19-19-19-19---|
|--------------------------------------------------------------------|
|
|                                    ~~~~~~~~~~~~~~~~~~
| +E        Q.                       Q             +Q
|--------------------------------------------------------------------|
|-(2)-------3------------------------5-------------(5)---------------|
|--------------------------------------------------------------------|
|--------------------------------------------------------------------|
|--------------------------------------------------------------------|
|--------------------------------------------------------------------|


   |-----5------|  |------5-------|  |-----5-----|  |-----5-----|
   S   S  S  S  S  S  S  S     S  S  S  S  S  S  S  S  S  S  S  S
|-----------------------------------------------------------------|
|-----------------------------------------------------------------|
|-11--11-11-11-11-11-11-11----11-11-11-11-11-11-11-15-15-15-15-15-|
|-----------------------------------------------------------------|
|--9---9--9--9--9--9--9--9-----9--9--9--9--9--9--9-13-13-13-13-13-|
|-----------------------------------------------------------------|
|
|                                                   ~~~~~~~~~~~~~~~
|  Q.                      Q.                       Q
|-----------------------------------------------------------------|
|--8-----------------------7-----------------------14-------------|
|--6-----------------------6-----------------------12-------------|
|-----------------------------------------------------------------|
|-----------------------------------------------------------------|
|-----------------------------------------------------------------|


    |-----5------|  |-----5-----|  |-----5-----|  |-----5-----|
    S   S  S  S  S  S  S  S  S  S  S  S  S  S  S  S  S  S  S  S
|-----------------------------------------------------------------|
|-----------------------------------------------------------------|
|--15--15-16-16-16-16-16-16-16-16-16-16-16-16-16-16-16-16-16-16---|
|-----------------------------------------------------------------|
|--13--13-14-14-14-14-14-14-14-14-14-14-14-14-14-14-14-14-14-14---|
|-----------------------------------------------------------------|
|
|~~~~~~
|  +H                              Q              Q
|-----------------------------------------------------------------|
|-(14)----------------------------12-------------11---------------|
|-(12)------------------------------------------------------------|
|-----------------------------------------------------------------|
|-----------------------------------------------------------------|
|-----------------------------------------------------------------|


   |-----5------|  |-------5-------|  |-----5-----|  |-----5-----|
   S   S  S  S  S  S  S  S      S  S  S  S  S  S  S  S  S  S  S  S
|------------------------------------------------------------------|
|------------------------------------------------------------------|
|-12--12-12-12-12-12-12-12-----12-12-12-12-12-12-12-15-15-15-15-15-|
|------------------------------------------------------------------|
|-10--10-10-10-10-10-10-10-----10-10-10-10-10-10-10-13-13-13-13-13-|
|------------------------------------------------------------------|
|
|                                                    ~~~~~~~~~~~~~~~
|  Q.                       Q.                       Q
|------------------------------------------------------------------|
|-14-----------------------12-----------------------11-------------|
|------------------------------------------------------------------|
|------------------------------------------------------------------|
|------------------------------------------------------------------|
|------------------------------------------------------------------|


    |-------5--------|  |-----5-----|  |-----5-----|  |-----5-----|
    S   S  S      S  S  S  S  S  S  S  S  S  S  S  S  S  S  S  S  S
|--------------------------------------------------------------------|
|--------------------------------------------------------------------|
|--15--15-16-----16-16-16-16-16-16-16-18-18-18-18-18-18-18-18-18-18--|
|--------------------------------------------------------------------|
|--13--13-14-----14-14-14-14-14-14-14-16-16-16-16-16-16-16-16-16-16--|
|--------------------------------------------------------------------|
|
|~~~~~~
|  +E         Q.                       H
|--------------------------------------------------------------------|
|-(11)-------12------------------------7-----------------------------|
|--------------------------------------------------------------------|
|--------------------------------------------------------------------|
|--------------------------------------------------------------------|
|--------------------------------------------------------------------|


   |-----5------|  |------5-------|  |-----5-----|  |-----5-----|
   S   S  S  S  S  S  S  S     S  S  S  S  S  S  S  S  S  S  S  S
|-----------------------------------------------------------------|
|-----------------------------------------------------------------|
|-11--11-11-11-11-11-11-11----11-11-11-11-11-11-11-15-15-15-15-15-|
|-----------------------------------------------------------------|
|--9---9--9--9--9--9--9--9-----9--9--9--9--9--9--9-13-13-13-13-13-|
|-----------------------------------------------------------------|
|
|                                                   ~~~~~~~~~~~~~~~
|  Q.                      Q.                       Q
|---------------------------------------------------9-------------|
|--8-----------------------7------------------------8-------------|
|-----------------------------------------------------------------|
|-----------------------------------------------------------------|
|-----------------------------------------------------------------|
|-----------------------------------------------------------------|


   |-----5------|  |-----5-----|  |-----5-----|  |-----5-----|
   S   S  S  S  S  S  S  S  S  S  S  S  S  S  S  S  S  S  S  S
|----------------------------------------------------------------|
|----------------------------------------------------------------|
|-15--15-16-16-16-16-16-16-16-16-16-16-16-16-16-16-16-16-16-16---|
|----------------------------------------------------------------|
|-13--13-14-14-14-14-14-14-14-14-14-14-14-14-14-14-14-14-14-14---|
|----------------------------------------------------------------|
|
|~~~~~
| +H                              Q              Q
|-(9)------------------------------------------------------------|
|-(8)-----------------------------7--------------8---------------|
|----------------------------------------------------------------|
|----------------------------------------------------------------|
|----------------------------------------------------------------|
|----------------------------------------------------------------|


   |-----5------|  |------5-------|  |-----5-----|  |-----5-----|
   S   S  S  S  S  S  S  S     S  S  S  S  S  S  S  S  S  S  S  S
|-----------------------------------------------------------------|
|-----------------------------------------------------------------|
|-16--16-16-16-16-16-16-16----16-16-16-16-16-16-16-18-18-18-18-18-|
|-----------------------------------------------------------------|
|-14--14-14-14-14-14-14-14----14-14-14-14-14-14-14-16-16-16-16-16-|
|-----------------------------------------------------------------|
|
|                                                   ~~~~~~~~~~~~~~~
|  Q.                      Q.                       Q
|---------------------------------------------------9-------------|
|--8-----------------------7------------------------8-------------|
|-----------------------------------------------------------------|
|-----------------------------------------------------------------|
|-----------------------------------------------------------------|
|-----------------------------------------------------------------|


   |-----5------|  |-----5-----|  |-----5-----|  |------5-------|
   S   S  S  S  S  S  S  S  S  S  S  S  S  S  S  S   S  S    S  S
|------------------------------------------------------------------|
|------------------------------------------------------------------|
|-18--18-18-18-18-19-19-19-19-19-21-21-21-21-21-21--21-21---21-21--|
|------------------------------------------------------------------|
|-16--16-16-16-16-17-17-17-17-17-19-19-19-19-19-19--19-19---19-19--|
|------------------------------------------------------------------|
|
|~~~~~
| +H.                                           +E        E
|-(9)-------------------------------------------(9)-------9--------|
|-(8)-------------------------------------------(8)----------------|
|------------------------------------------------------------------|
|------------------------------------------------------------------|
|------------------------------------------------------------------|
|------------------------------------------------------------------|


   H.                        Q      +E    E      +H.
|---------------------------------|-----------------------------------|
|---------------------------------|-----------------------------------|
|---------------------------------|-----------------------------------|
|---------------------------------|-----------------------------------|
|--4-------------------------8----|-(8)---9------(9)------------------|
|--2-------------------------6----|-(6)---7------(7)------------------|
|
|            \3.75           \2                   \3.75__________|
|                                                          ~~~~~~~~~
|  E        +E     E  e E e +E  E    E    E      +E       +Q    +Q.
|-10b10.5==(10)r-----10---9-(9)---|-----/10b11==(10)r----(10)--(10)---|
|---------------------------------|-----------------------------------|
|---------------------------------|-----------------------------------|
|---------------------------------|-----------------------------------|
|---------------------------------|-----------------------------------|
|---------------------------------|-----------------------------------|


   H.                                                          |
|--------------------------------------------------------------|
|--------------------------------------------------------------|
|--------------------------------------------------------------|
|--------------------------------------------------------------|
|--5-----------------------------------------------------------|
|--3-----------------------------------------------------------|
||
|  \0.5/   /0.5\   \0.5/   /0.5\   \0.5___\0.5___\0.5___|  \1/ |
|  ~~~~~~~~~~~~~~~~~~~~~~~~~~~~~~~~~~~~~~~~~~~~~~~~~~~~~~~~~~~~|

                        Q
-------------------------------------------|
-------------------------------------------|
-------------------------------------------|
-------------------------------------------|
------------------------8------------------|
------------------------6------------------|

  /1\   /0.5____/0.5____/   \1 \1.25___\1___
~~~~~~~~~~~~~~~~~~~~~~~~~~~~~~~~~~~~~~~~~~~~
|  S      +S      +S      +S      +S      S      S      S  S  |
|-------------------------------------------------------------|
|-12-----(12)----(12)----(12)----(12)h===14p====12h====14p12--|
|-------------------------------------------------------------|
|-------------------------------------------------------------|
|-------------------------------------------------------------|
|-------------------------------------------------------------|

  +S    +S      +S      +S   S  S       S
--------------------------------------------|
-(12)--(12)----(12)----(12)h14p12h=====14p==|
--------------------------------------------|
--------------------------------------------|
--------------------------------------------|
--------------------------------------------|


  +E               Q.                                H
|----------------------------------------------------------------|
|----------------------------------------------------------------|
|----------------------------------------------------------------|
|----------------------------------------------------------------|
|-(8)--------------9--------------------------------11-----------|
|-(6)--------------7---------------------------------9-----------|
|
|  \0.5/  /0.75\   /0.25\   \0.25/   /0.5\
|~~~~~~~~~~~~~~~~~~~~~~~~~~~~~~~~~~~~~~~~~~~~~~~~~~~
|  S      S       +S       +S       +S      S  S  S  Q.     S  S
|----------------------------------------------------------------|
|-12h====14------(14)-----(14)-----(14)----14p12h14--------------|
|---------------------------------------------------15\---/11h12-|
|----------------------------------------------------------------|
|----------------------------------------------------------------|
|----------------------------------------------------------------|


   H.                                  Q
|-------------------------------------------------|
|-------------------------------------------------|
|-------------------------------------------------|
|-------------------------------------------------|
|--4-----------------------------------8----------|
|--2-----------------------------------6----------|
|
|  S   S S  S  S  S  S  S  S  S  S  S  S  S  S  S
|----------------------------------------10-12-14-|
|-11----------11----11-12-14-12-11-12-14----------|
|-----12---12----12-------------------------------|
|-------------------------------------------------|
|-------------------------------------------------|
|-------------------------------------------------|


  +E      E    +H.
|--------------------------------------------------------|
|--------------------------------------------------------|
|--------------------------------------------------------|
|--------------------------------------------------------|
|-(8)-----9----(9)---------------------------------------|
|-(6)-----7----(7)---------------------------------------|
|
|                              |--3--|        |--3--|
|  S   S  S  S  S   S S  S  S  S  S  S  S  S  S  S  S  S
|-----------14-15--14---14-15h18p15p14----15-18p15p14----|
|-----14-17----------------------------17-------------17-|
|--------------------------------------------------------|
|--------------------------------------------------------|
|--------------------------------------------------------|
|--------------------------------------------------------|


   H.                                        Q
|-------------------------------------------------------|
|-------------------------------------------------------|
|-------------------------------------------------------|
|-------------------------------------------------------|
|--5-----------------------------------------8----------|
|--3-----------------------------------------6----------|
|
|  |--3--|        |--3--|
|  S  S  S  S  S  S  S  S  S  S  S  S  S  S  S  S  S  S
|-18p15p14----14-18p15p14-------------------------------|
|----------17-------------17p15p14----14-17p15p14----14-|
|----------------------------------16-------------16----|
|-------------------------------------------------------|
|-------------------------------------------------------|
|-------------------------------------------------------|


  +E      Q.           H
|------------------------------------|
|------------------------------------|
|------------------------------------|
|------------------------------------|
|-(8)-----9-----------11-------------|
|-(6)-----7------------9-------------|
|
|                           ~~~~~~~~
|  S   S  S  S  E  E  +E   +Q.
|------------------------------------|
|-15--17p15p14-----------------------|
|--------------16p15-(15)-(15)b17r===|
|------------------------------------|
|------------------------------------|
|------------------------------------|


    Gtr I
     |-----5-----|  |-----5-----|  |-----5-----|  |-----5-----|
     S  S  S  S  S  S  S  S  S  S  S  S  S  S  S  S  S  S  S  S
||--------------------------------------------------------------|
||o-------------------------------------------------------------|
||--11-11-11-11-11-11-11-11-12-12-12-12-12-12-12-11-11-11-11-11-|
||--------------------------------------------------------------|
||o--9--9--9--9--9--9--9--9-10-10-10-10-10-10-10--9--9--9--9--9-|
||--------------------------------------------------------------|
|
|   Gtr I
|    |-----5-----|  |-----5-----|  |-----5-----|  |-----5-----|
|    S  S  S  S  S  S  S  S  S  S  S  S  S  S  S  S  S  S  S  S
||--------------------------------------------------------------|
||o-------------------------------------------------------------|
||--------------------------------------------------------------|
||--------------------------------------------------------------|
||o-------------------------------------------------------------|
||---2--2--2--2--2--2--2--2--3--3--3--3--3--3--3--2--2--2--2--2-|


   |-----5-----|  |-----5-----|  |-----5-----|  |-----5-----|
   S  S  S  S  S  S  S  S  S  S  S  S  S  S  S  S  S  S  S  S
|---------------------------------------------------------------|
|---------------------------------------------------------------|
|-11-11-10-10-10-10-10-10-10-10-11-11-11-11-11-11-11-11-11-11---|
|---------------------------------------------------------------|
|--9--9--8--8--8--8--8--8--8--8--9--9--9--9--9--9--9--9--9--9---|
|---------------------------------------------------------------|
|
|  |-----5-----|  |-----5-----|  |-----5-----|  |-----5-----|
|  S  S  S  S  S  S  S  S  S  S  S  S  S  S  S  S  S  S  S  S
|---------------------------------------------------------------|
|---------------------------------------------------------------|
|---------------------------------------------------------------|
|---------------------------------------------------------------|
|---------------------------------------------------------------|
|--2--2--1--1--1--1--1--1--1--1--2--2--2--2--2--2--2--2--2--2---|


   |-----5-----|  |-----5-----|  |-----5-----|  |-----5-----|
   S  S  S  S  S  S  S  S  S  S  S  S  S  S  S  S  S  S  S  S
|-------------------------------------------------------------|
|-------------------------------------------------------------|
|-11-11-11-11-11-11-11-11-12-12-12-12-12-12-12-11-11-11-11-11-|
|-------------------------------------------------------------|
|--9--9--9--9--9--9--9--9-10-10-10-10-10-10-10--9--9--9--9--9-|
|-------------------------------------------------------------|
|
|  |-----5-----|  |-----5-----|  |-----5-----|  |-----5-----|
|  S  S  S  S  S  S  S  S  S  S  S  S  S  S  S  S  S  S  S  S
|-------------------------------------------------------------|
|-------------------------------------------------------------|
|-------------------------------------------------------------|
|-------------------------------------------------------------|
|-------------------------------------------------------------|
|--2--2--2--2--2--2--2--2--3--3--3--3--3--3--3--2--2--2--2--2-|


   |--3--|
   S  S  S  Q.    H     4x
|-----------------------||
|----------15----14----o||
|-11-11-11S16----15-----||
|-----------------------||
|--9--9--9-------------o||
|-----------------------||
|
|  |--3--|
|  S  S  S  Q.    H     4x
|-----------------------||
|----------------------o||
|-----------------------||
|-----------------------||
|----------14----13----o||
|--2--2--2-15----14-----||


    Gtr I
      PM--|   PM--|     PM--|   PM|
    E E E E E E E E   E E E E E E E E
||------------------|-----------------|
||o-----------------|-----------------|
||------------------|-----------------|
||------------------|-----------------|
||o-----------------|-----------------|
||--2-0-0-0-2-0-0-0-|-2-0-0-0-2-0-0-2S|
|
|     PM--|   PM--|     PM--|   PM|
|   E E E E E E E E   E E E E E E E E
||------------------|-----------------|
||o-----------------|-----------------|
||------------------|-----------------|
||------------------|-----------------|
||o-9-------9-------|-9-------9-----9S|
||--0-0-0-0-0-0-0-0-|-0-0-0-0-0-0-0-0-|


     PM--|    PM--|      PM--|    PM|
   E E E E  E E E E    E E E E  E E E  E    3x
|-------------------|-----------------------||
|-------------------|----------------------o||
|-------------------|-----------------------||
|-------------------|-----------------------||
|-------------------|----------------------o||
|--3-0-0-0--3-0-0-0-|--3-0-0-0--3-0-0--3\---||
|
|    PM--|    PM--|      PM--|    PM|
|  E E E E  E E E E    E E E E  E E E  E    3x
|-------------------|-----------------------||
|-------------------|----------------------o||
|-------------------|-----------------------||
|-------------------|-----------------------||
|-10-------10-------|-10-------10-----10\--o||
|--0-0-0-0--0-0-0-0-|--0-0-0-0--0-0-0--0----||


    PM--|   PM--|     PM--|   PM|        PM--|    PM--|      PM--|    PM--|
  E E E E E E E E   E E E E E E E E    E E E E  E E E E    E E E E  E E E E
|-----------------|-----------------|-------------------|-------------------|
|-----------------|-----------------|-------------------|-------------------|
|-----------------|-----------------|-------------------|-------------------|
|-----------------|-----------------|-------------------|-------------------|
|-----------------|-----------------|-------------------|-------------------|
|-2-0-0-0-2-0-0-0-|-2-0-0-0-2-0-0-2S|==3-0-0-0--3-0-0-0-|--3-0-0-0--3-0-0-0-|
|
|   PM--|   PM--|     PM--|   PM|        PM--|    PM--|      PM--|    PM--|
| E E E E E E E E   E E E E E E E E    E E E E  E E E E    E E E E  E E E E
|-----------------|-----------------|-------------------|-------------------|
|-----------------|-----------------|-------------------|-------------------|
|-----------------|-----------------|-------------------|-------------------|
|-----------------|-----------------|-------------------|-------------------|
|-9-------9-------|-9-------9-----9S|=10-------10-------|-10-------10-------|
|-0-0-0-0-0-0-0-0-|-0-0-0-0-0-0-0-0-|--0-0-0-0--0-0-0-0-|--0-0-0-0--0-0-0-0-|


      PM--|   PM--|     PM--|   PM--|     PM--|   PM--|     PM--|   PM--|
    E E E E E E E E   E E E E E E E E   E E E E E E E E   E E E E E E E E
||------------------|-----------------|-----------------|-------------------||
||o-----------------|-----------------|-----------------|------------------o||
||------------------|-----------------|-----------------|-------------------||
||------------------|-----------------|-----------------|-------------------||
||o-----------------|-----------------|-----------------|------------------o||
||--2-0-0-0-2-0-0-0-|-2-0-0-0-2-0-0-0-|-2-0-0-0-2-0-0-0-|-2-0-0-0-2-0-0-0---||


    E E E E E E E E   E E E E E E E E  3x E E E E E E E E   E E E E Q  Q
||------------------|------------------||-----------------|----------------*|
||o-----------------|-----------------o||-----------------|----------------*|
||------------------|------------------||-----------------|----------------*|
||------------------|------------------||-----------------|----------------*|
||o-5-4-3-4-3-4-2-3-|-5-4-3-4-3-4-2-3-o||-5-4-3-4-3-4-2-3-|-5-4-3-4-3------*|
||--3-2-1-2-1-2-0-1-|-3-2-1-2-1-2-0-1--||-3-2-1-2-1-2-0-1-|-3-2-1-2-1------*|


Additional notes:
The transcription of the guitar lead part is more or less approximate. I have 
tried my best to match it note for note but alas, I am no Steve Gorenberg nor do I 
have his pair of finely tuned ears. 


Duration Legend
---------------
W - whole; H - half; Q - quarter; E - 8th; S - 16th; T - 32nd; X - 64th; a - acciaccatura
+ - note tied to previous; . - note dotted; .. - note double dotted
Uncapitalized letters represent notes that are staccato (1/2 duration)
Irregular groupings are notated above the duration line
Duration letters will always appear directly above the note/fret number it represents the
duration for.  Duration letters with no fret number below them represent rests.  Multi-
bar rests are notated in the form Wxn, where n is the number of bars to rest for.  Low
melody durations appear below the staff

Tablature Legend
----------------
 h   - hammer-on
 p   - pull-off
 b   - bend
 pb  - pre-bend
 r   - bend release (if no number after the r, then release immediately)
 /\  - slide into or out of (from/to "nowhere")
 s   - legato slide
 S   - shift slide
  - natural harmonic
[n]  - artificial harmonic
n(n) - tapped harmonic
 ~   - vibrato
 tr  - trill
 T   - tap
 TP  - trem. picking
 PM  - palm muting
\n/  - tremolo bar dip; n = amount to dip
 \n  - tremolo bar down
 n/  - tremolo bar up
/n\  - tremolo bar inverted dip
 =   - hold bend; also acts as connecting device for hammers/pulls
 <>  - volume swell (louder/softer)
 x   - on rhythm slash represents muted slash
 o   - on rhythm slash represents single note slash

Misc Legend
-----------
 |  - bar
||  - double bar
||o - repeat start
o|| - repeat end
*|  - double bar (ending)
 :  - bar (freetime)
 $  - Segno
 &  - Coda
Tempo markers -  = BPM(8/16=s8/s16), where s8 = swing 8ths, s16 = swing 16ths
Tap to rate this tab
# A B C D E F G H I J K L M N O P Q R S T U V W X Y Z