Song name
# A B C D E F G H I J K L M N O P Q R S T U V W X Y Z

Sepultura - Jasco tab

#----------------------------------PLEASE NOTE---------------------------------#
#This file is the author's own work and represents their interpretation of the #
#song. You may only use this file for private study, scholarship, or research. #
#------------------------------------------------------------------------------#

JASCO
As recorded by Sepultura
(From the 1996 Album ROOTS)

Transcribed by Jeff Jacobson, Kerry O'Brien, Paul Pappas, and Steve Gorenberg
	

Music by Andreas Kisser

Gtr I (D A D G B E) - 'Untitled'

  Moderately Q.=110
  D6sus4                            N.C.
 6/8
  Gtr I
    H.          +H.                  E   E E  E  E E   E  E E E  E E
|-----------|--------------------||-12-------10------|-7------5------|
|-<12>------|-(<12>)-------------||-----11-------9---|----9------9---|
|-<12>------|-(<12>)-------------||--------9-------7-|------7------7-|
|-<12>------|-(<12>)-------------||-----------0------|--------0------|
|-<12>------|-(<12>)-------------||------------------|---------------|
|-<12>------|-(<12>)---(<12>)--0-||-(0)--------------|-0-------------|
    H.          +Q.      +Q    E    +Q.       Q.       Q.     Q.


  E  E E E  E E   E  E E E  E E   E  E E E  E E   E  E E E  E E
|-9------7------|-4------4------|-5------5------|-5------5------|
|----5------5---|----3------3---|----3------3---|----3------3---|
|------7------7-|------1------1-|------2------2-|------2------2-|
|--------0------|--------0------|--------0------|--------0------|
|---------------|---------------|---------------|---------------|
|-0-------------|-0-------------|-0-------------|-0-------------|
  Q.     Q.       Q.     Q.       Q.     Q.       Q.     Q.


  E  E E E  E E   E  E E E  E a E    E   E E  E  E E   E  E E E  E E
|-5------5------|-5------5--------|-12-------10------|-7------5------|
|----3------3---|----3------3-----|-----11-------9---|----9------9---|
|------2------2-|------2------2s9-|--------9-------7-|------7------7-|
|--------0------|--------0--------|-----------0------|--------0------|
|---------------|-----------------|------------------|---------------|
|-0-------------|-0---------------|--0---------------|-0-------------|
  Q.     Q.       Q.     Q.          Q.       Q.       Q.     Q.


  E  E E E  E E   E  E E E  E E   E  E E E  E E   E  E E E  E E
|-9------7------|-4------4------|-5------5------|-5------5------|
|----5------5---|----3------3---|----3------3---|----3------3---|
|------7------7-|------1------1-|------2------2-|------2------2-|
|--------0------|--------0------|--------0------|--------0------|
|---------------|---------------|---------------|---------------|
|-0-------------|-0-------------|-0-------------|-0-------------|
  Q.     Q.       Q.     Q.       Q.     Q.       Q.     Q.


  E  E E E  E E   E  E E E  E E   E  E E E E E   E  E E E E E
|-4------4------|-4------7------|-8------8-----|-8------8-----|
|----3------3---|----3------5---|----7-----7---|----7-----7---|
|------1------1-|------1------4-|------5-----5-|------5-----5-|
|--------0------|--------0------|--------------|-0------------|
|---------------|---------------|--------------|--------------|
|-0-------------|-0-------------|-0------------|--------------|
  Q.     Q.       Q.     Q.       H.             H.


  E  E E E E E   E  E E E E E   E  E E E E E   E  E E E E E
|-8------8-----|-8------8-----|-8------8-----|-8------8-----|
|----7-----7---|----7-----7---|----7-----7---|----7-----7---|
|------5-----5-|------5-----5-|------5-----5-|------5-----5-|
|-0------------|-0------------|-0------------|-0------------|
|--------------|--------------|--------------|--------------|
|--------------|--------------|--------------|--------------|
  H.             H.             H.             H.


  E  E E E E E   E  E E E E E    E E E E E E   E E E E E E
|-8------8-----|-8------8-----||-----7-4h5---|-------2p0---|
|----7-----7---|----7-----7---||-----------7-|-----3-----3-|
|------5-----5-|------5-----5-||-4h5---------|-1h2---------|
|-0------------|-0------------||-------0-----|-------0-----|
|--------------|--------------||-------------|-------------|
|--------------|--------------||-0-----------|-0-----------|
  H.             H.              Q.    Q.      Q.    Q.


  E E E E E E   E E E E E E   E E E E E E   E E E E E E
|-----7-4h5---|-----5-4h5---|-------2p0---|-----7-4h5---|
|-----------7-|-----------7-|-----3-----3-|-----------7-|
|-4h5---------|-5h7---------|-1h2---------|-4h5---------|
|-------0-----|-------0-----|-------0-----|-------0-----|
|-------------|-------------|-------------|-------------|
|-0-----------|-0-----------|-0-----------|-0-----------|
  Q.    Q.      Q.    Q.      Q.    Q.      Q.    Q.


  E E E E E E   E E E E E E   E E E E E E   +E  E E E E E
|-------2p0---|-----7-4h5---|-----4-5p4---|---------------|
|-----3-----3-|-----------7-|-----------7-|-(7)-----5s3---|
|-1h2---------|-4h5---------|-5h7---------|-----5h7-----5-|
|-------0-----|-------0-----|-------0-----|---------0-----|
|-------------|-------------|-------------|---------------|
|-0-----------|-0-----------|-0-----------|--0------------|
  Q.    Q.      Q.    Q.      Q.    Q.       Q.     Q.


  E E E E E E    a  E  E E E E E   E E E E E E   +E  E  E E E E
|-------4h5---|------------------|-------5h7---|----------------|
|-----7-----7-|-(7)s9------7s5---|-----9-----9-|-(9)------9s7---|
|-4h5---------|--------7h9-----7-|-5h7---------|-----9h11-----9-|
|-------0-----|------------0-----|-------0-----|----------0-----|
|-------------|------------------|-------------|----------------|
|-0-----------|-----0------------|-0-----------|--0-------------|
  Q.    Q.          Q.     Q.      Q.    Q.       Q.      Q.


  E E E E E E   +E  E E E E E   +E  E E E E E   E E E E E E
|-------7-----|---------------|---------------|-------4h5---|
|-----7-7h9---|---------7s5---|---------5s3---|-----7-----7-|
|-7h9-------9-|-(9)-7h9-----7-|-(7)-5h7-----5-|-4h5---------|
|-------0-----|---------0-----|---------0-----|-------0-----|
|-------------|---------------|---------------|-------------|
|-0-----------|--0------------|--0------------|-0-----------|
  Q.    Q.       Q.     Q.       Q.     Q.      Q.    Q.


   a  E  E E E E E   E E E E E E   +E  E  E E E E   E E E E E E
|------------------|-------5h7---|----------------|-------7-----|
|-(7)s9------7s5---|-----9-----9-|-(9)------9s7---|-----7-7h9---|
|--------7h9-----7-|-5h7---------|-----9h11-----9-|-7h9-------9-|
|------------0-----|-------0-----|----------0-----|-------0-----|
|------------------|-------------|----------------|-------------|
|-----0------------|-0-----------|--0-------------|-0-----------|
      Q.     Q.      Q.    Q.       Q.      Q.      Q.    Q.


  +E  E E E E E   +E  E E E E E    a  E  E E E E E   +E  E E E E E
|---------------|---------------|------------------|---------------|
|---------7s5---|---------5s3---|------------7s5---|---------5s3---|
|-(9)-7h9-----7-|-(7)-5h7-----5-|-(5)s7--7h9-----7-|-(7)-5h7-----5-|
|---------0-----|---------0-----|------------0-----|---------0-----|
|---------------|---------------|------------------|---------------|
|--0------------|--0------------|-----0------------|--0------------|
   Q.     Q.       Q.     Q.          Q.     Q.       Q.     Q.


  E E E E E E   E E E E E E   E E E E E E   E E E E E E
|-------2p0---|-------2p0---|-------2p0---|-------2p0---|
|-----3-----3-|-----3-----3-|-----3-----3-|-----3-----3-|
|-1h2---------|-1h2---------|-1h2---------|-1h2---------|
|-------0-----|-------0-----|-------0-----|-------0-----|
|-------------|-------------|-------------|-------------|
|-0-----------|-0-----------|-0-----------|-0-----------|
  Q.    Q.      Q.    Q.      Q.    Q.      Q.    Q.


  E E E E E E   E E E E E E   E E E E E E   E E E E E E
|-------4h5---|-------4h5---|-------4h5---|-------4h5---|
|-----7-----7-|-----7-----7-|-----7-----7-|-----7-----7-|
|-4h5---------|-4h5---------|-4h5---------|-4h5---------|
|-------0-----|-0-----0-----|-0-----0-----|-0-----0-----|
|-------------|-------------|-------------|-------------|
|-0-----------|-------------|-------------|-------------|
  Q.    Q.      Q.    Q.      Q.    Q.      Q.    Q.


  E E E E E E   E E E E E E   E E E E E E   E E E E E E
|-------5h7---|-------5h7---|-------5h7---|-------5h7---|
|-----9-----9-|-----9-----9-|-----9-----9-|-----9-----9-|
|-5h7---------|-5h7---------|-5h7---------|-5h7---------|
|-0-----0-----|-0-----0-----|-0-----0-----|-0-----0-----|
|-------------|-------------|-------------|-------------|
|-------------|-------------|-------------|-------------|
  Q.    Q.      Q.    Q.      Q.    Q.      Q.    Q.


  +E  E E E E E   +E  E E E E E    a  E  E E E E E   +E  E E E E E
|---------------|---------------|------------------|---------------|
|-(9)-----7s5---|---------5s3---|------------7s5---|---------5s3---|
|-----7h9-----7-|-(7)-5h7-----5-|-(5)s7--7h9-----7-|-(7)-5h7-----5-|
|---------0-----|---------0-----|------------0-----|---------0-----|
|---------------|---------------|------------------|---------------|
|--0------------|--0------------|-----0------------|--0------------|
   Q.     Q.       Q.     Q.          Q.     Q.       Q.     Q.


   a  E  E E E E E   +E  E E E E E    a  E  E E E E E   +E  E E E E E
|------------------|---------------|------------------|----------------||
|------------7s5---|---------5s3---|------------7s5---|---------5s3----||
|-(5)s7--7h9-----7-|-(7)-5h7-----5-|-(5)s7--7h9-----7-|-(7)-5h7-----5--||
|------------0-----|---------0-----|------------0-----|---------0------||
|------------------|---------------|------------------|----------------||
|-----0------------|--0------------|-----0------------|--0-------------||
      Q.     Q.       Q.     Q.          Q.     Q.       Q.     Q.


  D            Amaj7sus4/D  D6sus2       D7
 3/4
  Q  E E E E    Q  Q  E E   Q  E E E E    Q  E E E E
|-2--2-2-2---|-^4--4--4s7-|-7--7-7-7-8-|-^8--8-8-8-8-|
|-3--3-3-3-3-|-^3--3--3---|-5--5-5-5---|-^7--7-7-7-7-|
|-2--2-2-2-1-|-^1--1--1s4-|-4--4-4-4-5-|-^5--5-5-5-5-|
|-0--0-0-0-0-|-^0--0--0---|-0--0-0-0-0-|-^0--0-0-0-0-|
|-0--0-0-0-0-|-^0--0--0---|-0--0-0-0-0-|-^0--0-0-0-0-|
|-0--0-0-0-0-|-^0--0--0---|-0--0-0-0-0-|-^0--0-0-0-0-|


    D7b9         D7           D7b9          D7
    Q  E E E E   Q  E E E E   E E E E E E   Q  E E E E
||--8--8-8-8-8-|-8--8-8-8-8-|-8-8-8-8-8-8-|-8--8-8-8-8-|
||o-7--7-7-7-7-|-7--7-7-7-7-|-7-7-7-7-7-7-|-7--7-7-7-7-|
||--5--5-5-5-5-|-5--5-5-5-5-|-5-5-5-5-5-5-|-5--5-5-5-5-|
||-------------|-0--0-0-0-0-|-------------|-0--0-0-0-0-|
||o-6--6-6-6-6-|-0--0-0-0-0-|-6-6-6-6-6-6-|-0--0-0-0-0-|
||--0--0-0-0-0-|-0--0-0-0-0-|-0-0-0-0-0-0-|-0--0-0-0-0-|


                           1.
  D7b9         D7           D7b9          D7
  Q  E E E E   Q  E E E E   E E E E E E   Q  E E E E
|-8--8-8-8-8-|-8--8-8-8-8-|-8-x-x-8-x-x-|-8--8-8-8-8--||
|-7--7-7-7-7-|-7--7-7-7-7-|-7-x-x-7-x-x-|-7--7-7-7-7-o||
|-5--5-5-5-5-|-5--5-5-5-5-|-5-x-x-5-x-x-|-5--5-5-5-5--||
|------------|-0--0-0-0-0-|-------------|-0--0-0-0-0--||
|-6--6-6-6-6-|-0--0-0-0-0-|-6-x-x-6-x-x-|-0--0-0-0-0-o||
|-0--0-0-0-0-|-0--0-0-0-0-|-0-0-0-0-0-0-|-0--0-0-0-0--||


  2.          Faster Q=182
  D7b9           Amaj7sus4/DV
                4/4
  E E E E E E     Q  E E +E  E E E   E Q  E E E Q     Q  E E +E  E E E
|-8-x-x-8-x-x-||-^5--5-5-(5)-5-5-5-|-5-5--5-5-5-5--|-^5--5-5-(5)-5-5-5-|
|-7-x-x-7-x-x-||-^9--9-9-(9)-9-9-9-|-9-9--9-9-9-9--|-^9--9-9-(9)-9-9-9-|
|-5-x-x-5-x-x-||-^7--7-7-(7)-7-7-7-|-7-7--7-7-7-7--|-^7--7-7-(7)-7-7-7-|
|-------------||-^0--0-0-(0)-0-0-0-|-0-0--0-0-0-0--|-^0--0-0-(0)-0-0-0-|
|-6-x-x-6-x-x-||-------------------|---------------|-------------------|
|-0-0-0-0-0-0-||-------------------|---------------|-------------------|


  E Q  E E E Q     Q  E E +E  E E E   E Q  E E E Q
|-5-5--5-5-5-5--|-^5--5-5-(5)-5-5-5-|-5-5--5-5-5-5--|
|-9-9--9-9-9-9--|-^9--9-9-(9)-9-9-9-|-9-9--9-9-9-9--|
|-7-7--7-7-7-7--|-^7--7-7-(7)-7-7-7-|-7-7--7-7-7-7--|
|-0-0--0-0-0-0--|-^0--0-0-(0)-0-0-0-|-0-0--0-0-0-0--|
|---------------|-------------------|---------------|
|---------------|-------------------|---------------|


   Q  E E +E  E E E   E E E E E E Q     W
|-^5--5-5-(5)-5-5-5-|-5-5-x-5-5-5-5--|-!5----*|
|-^9--9-9-(9)-9-9-9-|-9-9-x-9-9-9-9--|-!9----*|
|-^7--7-7-(7)-7-7-7-|-7-7-x-7-7-7-7--|-!7----*|
|-^0--0-0-(0)-0-0-0-|-0-0-0-0-0-0-0--|-!0----*|
|-------------------|----------------|-!0----*|
|-------------------|----------------|-!0----*|



Duration Legend
---------------
W - whole; H - half; Q - quarter; E - 8th; S - 16th; T - 32nd; X - 64th; a - acciaccatura
+ - note tied to previous; . - note dotted; .. - note double dotted
Uncapitalized letters represent notes that are staccato (1/2 duration)
Irregular groupings are notated above the duration line
Duration letters will always appear directly above the note/fret number it represents the
duration for.  Duration letters with no fret number below them represent rests.  Multi-
bar rests are notated in the form Wxn, where n is the number of bars to rest for.  Low
melody durations appear below the staff

Tablature Legend
----------------
 h   - hammer-on
 p   - pull-off
 b   - bend
 pb  - pre-bend
 r   - bend release (if no number after the r, then release immediately)
 /\  - slide into or out of (from/to "nowhere")
 s   - legato slide
 S   - shift slide
 - natural harmonic
[n]  - artificial harmonic
n(n) - tapped harmonic
 ~   - vibrato
 tr  - trill
 T   - tap
 TP  - trem. picking
 PM  - palm muting
\n/  - tremolo bar dip; n = amount to dip
 \n  - tremolo bar down
 n/  - tremolo bar up
/n\  - tremolo bar inverted dip
 =   - hold bend; also acts as connecting device for hammers/pulls
 <> - volume swell (louder/softer)
 x   - on rhythm slash represents muted slash
 o   - on rhythm slash represents single note slash

Misc Legend
-----------
 |  - bar
||  - double bar
||o - repeat start
o|| - repeat end
*|  - double bar (ending)
 :  - bar (freetime)
 $  - Segno
 &  - Coda
Tempo markers -  = BPM(8/16=s8/s16), where s8 = swing 8ths, s16 = swing 16ths

Tap to rate this tab
# A B C D E F G H I J K L M N O P Q R S T U V W X Y Z