Song name
# A B C D E F G H I J K L M N O P Q R S T U V W X Y Z

Sepultura - A Look At Tomorrow tab

Song: A LOOK AT TOMORROW
Band: SEPULTURA ( cover from Discharge )
Album: None. As played at the roskilde festival 1996
Tabbed by: Florent Campana campana@clotaire.iuta.u-nancy.fr 
web: http://www.chez.com/tribe/sindex.htm { this is on Sepultura
http://www.chez.com/tribe/m_index.htm { this is on Max Cavalera
                  			
Intro 

------------------------------------------------------------
------------------------------------------------------------
------------------------------------------------------------
------------------------------------------------------------
--7-12-6-6-6-6----------------------------------------------
--5-10-4-4-4-4----------------------------------------------



Verses
------------------------------------------------------
------------------------------------------------------
------------------------------------------------------
------------------------------------------------------
777/11/12---777/11/12---777/11/12---777/11/12---------
555/9 /10---555/9 /10---555/9 /10---555/9 /10---------



CHORUS
--------------------------
--------------------------
--------------------------
--------------------------
5-4-8-7-5-4--8-7----------
3-2-6-5-3-2--6-5----------

Tomorrow, tomorrow, a look at tomorrow


1st verse:

I Look Out My Window To A Blinding Bright Light
Enola Passes, Passes By


In the second verse, Max says:

 Let's fuck shit up in the motherfucking place yo!

then the chorus 

And finally the third:

Let's fuck shit up in the motherfucking place yo!



Ok, here is the tab, so enjoy, it's really easy to play so, it's not hard and it's cool
to play, that's the punk-rock philosophy! yo, i'm rappin' 

C-you later!

NUTTY DEAD FUCKING RULES!!!!!!
Tap to rate this tab
 
# A B C D E F G H I J K L M N O P Q R S T U V W X Y Z