Song name
# A B C D E F G H I J K L M N O P Q R S T U V W X Y Z

Sepultura - Breed Apart tab

Song: BREED APART
Band: SEPULTURA 
Album: ROOTS
Tabbed by: Florent Campana campana@clotaire.iuta.u-nancy.fr 
web: http://www.chez.com/tribe/sindex.htm { this is on Sepultura
http://www.chez.com/tribe/m_index.htm { this is on Max Cavalera
                  			

RIFF A/INTRO
------------------------------------------------------------
------------------------------------------------------------
------------------------------------------------------------
------------------------------------------------------------
--222-2222-222-2222-222-2222-222-2222-222-2222--------------
--000-0000-000-0000-000-0000-000-0000-000-0000--------------

Beat your knee to make the percussions it's cool :)



Riff B
-0-0-0----
-2-2-0----
-0-0-0----
-0-0-0----
-0-0-0----
-3-3-3----


RIFF A

RIFF B

RIFF C
-------------------------
-------------------------
-----------------------3-
-------------------------
-2--------22222222222----
-0--------00000000000----
          \_____________/
           before the verses

RIFF D/ VERSES

 >    >    >    >
-----------------
-----------------
-3~~~~3~~~~3~~~~3
-----------------
-----------------
-----------------

RIFF C

RIFF D

RIFF E
"Open up your mind and go your own way"
--------------------
--------------------
--------------------
--------------------
--------------------
-6-0-6-0-6-0-6-8-6--
               h

RIFF E

Berimbau; and percu, stuffs.

RIFF E

RIFF F


------------------------
------------------------
------------------------
------------------------
-4-8-7-5-8-7-5-4-3-4-3-4
-2-6-5-3-6-5-3-2-1-2-1-2
   |     |   
    \ you play only this chord, the other stuff is on hammering so you slide up.


I'm tabbing Lookaway, Endengered Species and Dictatorshit.


NUTTY DEAD FUCKING RULES!!!!!!!!!!!
Tap to rate this tab
# A B C D E F G H I J K L M N O P Q R S T U V W X Y Z