Song name
# A B C D E F G H I J K L M N O P Q R S T U V W X Y Z

Sepultura - Procreation Of The Wicked tab

Procreation (of the Wicked) - Sepultura

This ain't a Sepultura song, it's a cover, Discharge has made it.
It can be found on the two-track "Roots Bloody Roots" CD-single.

This is the riffs, you'll have to figure out the structure yourself!

Tune down one whole step.

6-D 3-F
5-G 2-A
4-C 1-d

 Intro
|-----------------|
|-----------------|
|-----------------|
|-----------------|
|-7-8-----4-3-2h3-|
|-5-6-0-0-2-1-0h1-|

 Main riff
|----------------|
|----------------|
|----------------|
|----------------|
|-7^-----4-3-2h3-|
|-5^-0-0-2-1-0h1-|

 Verse
|-------------|
|-------------|
|-------------|
|-------------|
|-3-------6-7-|
|-1-------4-5-|

 Chorus
|-----------------------|
|-----------------------|
|-----------------------|
|-----------------------|
|-7---7/9-9--9/10-12-11-|
|-5---5/7-7--7/8--10-9--|


Transcribed by Andreas Johanson-Rana .

Let me know if this is wrong!

World of Disorder: http://www.angelfire.com/me/RanasHomePage/index.html

|-----------------------------------------------------------------------|
| No damn chains can hold me to the ground... Jaymz H. Escape-Metallica |
|-----------------------------------------------------------------------|
Tap to rate this tab
# A B C D E F G H I J K L M N O P Q R S T U V W X Y Z