Song name
# A B C D E F G H I J K L M N O P Q R S T U V W X Y Z

Sepultura - Against tab

Help us improve GuitareTab! Take a short survey!
AGAINST

from: SEPULTURA
      AGAINST

tuned 4 halftones down

C |--------------------------------|
G |--------------------------------|
Eb|--------------------------------|
B |--------------------------------|
F |--------------------------------|
C |0--0-0--5-6-----0--0-0--5-6-5-6-|
           
C |--------------------------------|
G |--------------------------------|
Eb|--------------------------------|
B |--------------------------------|
F |--------------------------------|
C |6---0---6---0---6---0---6---0---|

C |--------------------------------|
G |--------------------------------|
Eb|--------------------------------|
B |--------------------------------|
F |3-------3-------3-------3-------|
C |1-------1-------1-------1-------|


C |16~~~~~~~~~~~~~~~~~~~~~~~~~~~~--|
G |--------------------------------|
Eb|--------------------------------|
B |--------------------------------|
F |--------------------------------|
C |6---0---6---0---6---0---6---0---|

C |--------------------------------|
G |--------------------------------|
Eb|--------------------------------|
B |--------------------------------|
F |2---2-2-2-2-2-2-2---2-2-2-2-2-2-|
C |0---0-0-0-0-0-0-0---0-0-0-0-0-0-|


 tabbed by  < goldrunner@gmx.de >
Related for Against tab