Song name
# A B C D E F G H I J K L M N O P Q R S T U V W X Y Z

Sepultura - Rumors tab

RUMORS

from: SEPULTURA
      AGAINST

Tuned to ?

e|-------------------|
B|-------------------|
G|-------------------|
D|-------------------|
A|--2-2-2-5-5-4-4-4--|
E|--0-0-0-3-3-2-2-2--|

e|------------------|
B|------------------|
G|------------------|
D|--------33333333--|
A|--2--5--11111111--|
E|--0--3------------|

e|--------------------|
B|--------------------|
G|--------------------|
D|--------------------|
A|--4-4-2-2-2-2-2-2---|
E|--2-2-0-0-0-0-0-0---|

e|------------|
B|------------|
G|------------|
D|------------|
A|--4-5--4-5--|
E|--2-3--2-3--|
      .    .

Tabbed by Vogi (vogi@geocities.com).
Tap to rate this tab
 
# A B C D E F G H I J K L M N O P Q R S T U V W X Y Z