Song name
# A B C D E F G H I J K L M N O P Q R S T U V W X Y Z

Sepultura - We Who Are Not As Others tab

#----------------------------------PLEASE NOTE---------------------------------#
#This file is the author's own work and represents their interpretation of the #
#song. You may only use this file for private study, scholarship, or research. #
#------------------------------------------------------------------------------#

WE WHO ARE NOT AS OTHERS
As recorded by Sepultura
(From the 1993 Album CHAOS A.D.)

Transcribed by Doetje2
	

Words by Max Cavalera Music by Max Cavalera, Andreas Kisser, Igor Cavalera, Paulo
Xisto Pinto Junior

G#
4 6 6 5 4 4
	
A
5 7 7 6 5 5
	
C#5
x 4 6 x x x
	
G5
3 5 x x x x

F#5
2 4 x x x x
	
A5
5 7 x x x x
	
G#5
4 6 x x x x
	
E5
0 2 x x x x

D5
x 5 7 x x x

Gtr I (Eb Ab Db Gb Bb Eb) - 'Untitled'
Gtr II (Eb Ab Db Gb Bb Eb) - 'Untitled'
Gtr III (Eb Ab Db Gb Bb Eb) - 'Untitled'
Gtr IV (Eb Ab Db Gb Bb Eb) - 'Untitled'
Gtr V (Eb Ab Db Gb Bb Eb) - 'Untitled'
Gtr VI (Eb Ab Db Gb Bb Eb) - 'Untitled'

   .
    Moderate Rock Q=146(8=s8)
    C#5                C#sus2/Ab
   4/4
    Gtr I              Gtr III
         PM-|
                       |--3---|                          |--3---|
    H    Q  Q   4x     Q    Q Q Q  Q    +W               Q    Q Q Q  Q
||--------------||-||-----------------|----------------|------------------|
||o------------o||-||o--------4-0-----|----------------|--------4-0-------|
||--------------||-||-------6------6--|-(6)------------|------6------6----|
||--6-----------||-||--6--------------|----------------|-6----------------|
||o-4----4--4--o||-||o----------------|----------------|------------------|
||-------4--4---||-||-----------------|----------------|------------------|
|
|                      Gtrs I, II
|                               PM-|             PM-|             PM-|
|   W           4x     E Q.     Q  Q     E  Q.   Q  Q    E Q.     Q  Q
||--------------||-||-----------------|----------------|------------------|
||o------------o||-||o----------------|----------------|------------------|
||--------------||-||-----------------|----------------|------------------|
||--------------||-||--6-6------------|--6--6----------|-6-6--------------|
||o------------o||-||o-4-4------4--4--|--4--4----4--4--|-4-4------4--4----|
||--------------||-||-----------4--4--|----------4--4--|----------4--4----|


  Dsus2/C#             C#sus2/Ab
  |--3---|             |--3---|
  Q    Q Q +H          Q    Q Q Q  Q
|-------------------||----------0-----|
|--------5-(5)-----o||--------4-------|
|------7------------||------6------6--|
|-7-----------------||-6--------------|
|------------------o||----------------|
|-------------------||----------------|
|
|           PM--|               PM-|
| E Q.      Q   Q      E Q.     Q  Q
|-------------------||----------------|
|------------------o||----------------|
|-------------------||----------------|
|-6-6---------------||-6-6------------|
|-4-4-------4---4--o||-4-4------4--4--|
|-----------4---4---||----------4--4--|


                                    Dsus2/C#
                   |--3---|         |--3---|
  +W               Q    Q Q Q  Q    Q    Q Q H
|----------------|----------0-----|----------0------|
|----------------|--------4----4--|--------5--------|
|-(6)------------|------6---------|------7----------|
|----------------|-6--------------|-7---------------|
|----------------|----------------|-----------------|
|----------------|----------------|-----------------|
|
|          PM-|             PM-|             PM-|
|  E  Q.   Q  Q    E Q.     Q  Q    E Q.     Q  Q
|----------------|----------------|-----------------|
|----------------|----------------|-----------------|
|----------------|----------------|-----------------|
|--6--6----------|-6-6------------|-6-6-------------|
|--4--4----4--4--|-4-4------4--4--|-4-4------4--4---|
|----------4--4--|----------4--4--|----------4--4---|


  C#sus2/Ab                                           Dsus2/C#
  |--3---|                           |--3---|         |--3---|
  Q    Q Q Q  E E   +W               Q    Q Q Q  Q    Q    Q Q H
|----------4------|----------------|----------4-----|----------5------||
|--------4----4---|----------------|--------4----4--|--------5--------||
|------6--------6-|-(6)------------|------6---------|------7----------||
|-6---------------|----------------|-6--------------|-7---------------||
|-----------------|----------------|----------------|-----------------||
|-----------------|----------------|----------------|-----------------||
|
|          PM-|              PM-|             PM-|             PM-|
| E Q.     Q  Q      E  Q.   Q  Q    E Q.     Q  Q    E Q.     Q  Q
|-----------------|----------------|----------------|-----------------||
|-----------------|----------------|----------------|-----------------||
|-----------------|----------------|----------------|-----------------||
|-6-6-------------|--6--6----------|-6-6------------|-6-6-------------||
|-4-4------4--4---|--4--4----4--4--|-4-4------4--4--|-4-4------4--4---||
|----------4--4---|----------4--4--|----------4--4--|----------4--4---||


 .
  G#
  Gtr IV
     |-3-|    |-3-|        |-3-| |-3-|
  Q  E E E Q  E E E    Q   E E E Q Q Q
  |  | | | |  | | |    |   | | | | | |
  /  / / / /  / / /    /   / / / / / /

  Gtr III
  W                    W
|-------------------|------------------|
|-------------------|------------------|
|-------------------|------------------|
|-------------------|------------------|
|-------------------|------------------|
|-------------------|------------------|
|
| Gtrs I, II
| W                   +W
|-------------------|------------------|
|-------------------|------------------|
|-------------------|------------------|
|-------------------|------------------|
|-6-----------------|-(6)--------------|
|-4-----------------|-(4)--------------|


  A
     |-3-|    |-3-|          |-3-| |-3-| |-3-|
  Q  E E E Q  E E E    Q     E E E E E E E E E
  |  | | | |  | | |    |     | | | | | | | | |
  /  / / / /  / / /    /     / / / / / / / / /

                       ~~~~~
  W                   +W
|-------------------|--------------------------|
|-------------------|--------------------------|
|-8-----------------|-(8)b9--------------------|
|-------------------|--------------------------|
|-------------------|--------------------------|
|-------------------|--------------------------|
|
| W                   +W
|-------------------|--------------------------|
|-------------------|--------------------------|
|-------------------|--------------------------|
|-------------------|--------------------------|
|-7-----------------|-(7)----------------------|
|-5-----------------|-(5)----------------------|


  G#
      |-3-|    |-3-|        |-3-| |-3-|
  Q   E E E Q  E E E    Q   E E E Q Q Q
  |   | | | |  | | |    |   | | | | | |
  /   / / / /  / / /    /   / / / / / /

  W                     W
|--------------------|------------------|
|--------------------|------------------|
|--------------------|------------------|
|--------------------|------------------|
|--------------------|------------------|
|--------------------|------------------|
|
| Gtr I
| W                    +W
|--------------------|------------------|
|--------------------|------------------|
|--------------------|------------------|
|--------------------|------------------|
|-6------------------|-(6)--------------|
|-4------------------|-(4)--------------|
|
| Gtr II
| H.           Q        W
|--------------------|--4---------------|
|--------------------|--4---------------|
|--------------------|--5---------------|
|--------------------|--6---------------|
|-6------------6-----|--6---------------|
|-4------------4-----|--4---------------|


  A
      |----3-----|       |-3-|        |-3-| |-3-|  |-3--|
  Q   E   E      E   Q   E E E    Q   E E E E E E  E  E E
  |   |   |      |   |   | | |    |   | | | | | |  |  | |
  /   /   /      /   /   / / /    /   / / / / / /  /  / /

                     ~~~          ~~~
      |----3-----|
  Q  +E  +E     +E  +H           +W
|------------------------------|--------------------------|
|-7--(7)-(7)b8==(7)r(7)--------|-(7)----------------------|
|-8--(8)-(8)b9==(8)r(8)--------|-(8)--------------(8)-----|
|------------------------------|--------------------------|
|------------------------------|--------------------------|
|------------------------------|--------------------------|
| Q  +E  +E     +E  +H           +H.              +Q
|     |----3-----|
|
| W                              +W
|------------------------------|--------------------------|
|------------------------------|--------------------------|
|------------------------------|--------------------------|
|------------------------------|--------------------------|
|-7----------------------------|-(7)----------------------|
|-5----------------------------|-(5)----------------------|
|
| W                              +W
|------------------------------|--------------------------|
|------------------------------|--------------------------|
|------------------------------|--------------------------|
|------------------------------|--------------------------|
|-7----------------------------|-(7)----------------------|
|-5----------------------------|-(5)----------------------|


 .
  C#sus2/Ab
  Gtr I
   |---3---|
   Q     Q Q Q  Q    +W
|------------------|----------------|
|----------4-0-----|----------------|
|--------6------6--|-(6)------------|
|--6---------------|----------------|
|------------------|----------------|
|------------------|----------------|
|
| Gtr III
| +W                 +W
|------------------|----------------|
|------------------|----------------|
|-(8)--------------|-(8)------------|
|------------------|----------------|
|------------------|----------------|
|------------------|----------------|
|
| Gtr II
|            PM-|             PM-|
|  E  Q.     Q  Q     E  Q.   Q  Q
|------------------|----------------|
|------------------|----------------|
|------------------|----------------|
|--6--6------------|--6--6----------|
|--4--4------4--4--|--4--4----4--4--|
|------------4--4--|----------4--4--|


                        Dsus2/C#
   |---3---|             |---3---|
   Q     Q Q Q   Q       Q     Q Q +H
|---------------------|---------------------|
|----------4-0--------|---------------------|
|--------6-------6----|----------5-(5)------|
|--6------------------|--------7------------|
|---------------------|--7------------------|
|---------------------|---------------------|
|
| +H.           +Q      +W
|---------------------|---------------------|
|---------------------|---------------------|
|-(8)-----------(8)\--|-(8)-----------------|
|---------------------|---------------------|
|---------------------|---------------------|
|---------------------|---------------------|
|
|            PM-|                   PM--|
|  E  Q.     Q   Q       E  Q.      Q   Q
|---------------------|---------------------|
|---------------------|---------------------|
|---------------------|---------------------|
|--6--6---------------|--6--6---------------|
|--4--4------4---4----|--4--4-------4---4---|
|------------4---4----|-------------4---4---|


  C#sus2/Ab                                          Dsus2/C#
  Gtr III
  |--3---|                          |--3---|         |---3---|
  Q    Q Q Q  Q    +W               Q    Q Q Q  Q    Q     Q Q  H
|----------------|----------------|----------------|------------0-----|
|--------4-0-----|----------------|--------4-0-----|---------5--------|
|------6------6--|-(6)------------|------6------6--|-------7----------|
|-6--------------|----------------|-6--------------|-7----------------|
|----------------|----------------|----------------|------------------|
|----------------|----------------|----------------|------------------|
|
| Gtrs I, II
|          PM-|             PM-|             PM-|
| E Q.     Q  Q     E  Q.   Q  Q    E Q.     Q  Q    E +Q.     +H
|----------------|----------------|----------------|------------------|
|----------------|----------------|----------------|------------------|
|----------------|----------------|----------------|------------------|
|-6-6------------|--6--6----------|-6-6------------|-6-(6)-----(6)----|
|-4-4------4--4--|--4--4----4--4--|-4-4------4--4--|-4-(4)-----(4)----|
|----------4--4--|----------4--4--|----------4--4--|------------------|


  C#sus2/Ab                                           Dsus2/C#
  |--3---|                           |--3---|         |---3---|
  Q    Q Q Q  E E   +W               Q    Q Q Q  Q    Q     Q Q  H
|----------4------|----------------|----------4-----|------------5-----|
|--------4----4---|----------------|--------4----4--|---------5--------|
|------6--------6-|-(6)------------|------6---------|-------7----------|
|-6---------------|----------------|-6--------------|-7----------------|
|-----------------|----------------|----------------|------------------|
|-----------------|----------------|----------------|------------------|
|
|          PM-|              PM-|             PM-|
| E Q.     Q  Q      E  Q.   Q  Q    E Q.     Q  Q    E +Q.     +H
|-----------------|----------------|----------------|------------------|
|-----------------|----------------|----------------|------------------|
|-----------------|----------------|----------------|------------------|
|-6-6-------------|--6--6----------|-6-6------------|-6-(6)-----(6)----|
|-4-4------4--4---|--4--4----4--4--|-4-4------4--4--|-4-(4)-----(4)----|
|----------4--4---|----------4--4--|----------4--4--|------------------|


  C#sus2/Ab                                          Dsus2/C#
  |--3---|                          |--3---|         |---3---|
  Q    Q Q Q  Q    +W               Q    Q Q Q  Q    Q     Q Q  H
|----------------|----------------|----------0-----|------------0-----|
|--------4-0-----|----------------|--------4----4--|---------5--------|
|------6------6--|-(6)------------|------6---------|-------7----------|
|-6--------------|----------------|-6--------------|-7----------------|
|----------------|----------------|----------------|------------------|
|----------------|----------------|----------------|------------------|
|
|          PM-|             PM-|             PM-|
| E Q.     Q  Q     E  Q.   Q  Q    E Q.     Q  Q    E +Q.     +H
|----------------|----------------|----------------|------------------|
|----------------|----------------|----------------|------------------|
|----------------|----------------|----------------|------------------|
|-6-6------------|--6--6----------|-6-6------------|-6-(6)-----(6)----|
|-4-4------4--4--|--4--4----4--4--|-4-4------4--4--|-4-(4)-----(4)----|
|----------4--4--|----------4--4--|----------4--4--|------------------|


   .
    Gtr I
             ~~~~~~            ~~~~~~         PM--------|     ~~~~~~
         |-3-|             |-3-|              |-3-| |-3-| |-3-|
    H    E E E +Q     H    E E E +Q    4x     E E E E E E E E E +Q
||------------------|------------------||-||--------------------------|
||o-----------------|-----------------o||-||o-------------------------|
||------------------|------------------||-||--------------------------|
||------------------|------------------||-||--------------------------|
||o------2p1--------|------2p1--------o||-||o-------------2p1---------|
||--0--------4-(4)--|-0--------3-(3)---||-||--0-0-0-0-0-0-----4-(4)---|
|
|   Gtr II
|            ~~~~~~            ~~~~~~         PM--------|     ~~~~~~
|        |-3-|             |-3-|              |-3-| |-3-| |-3-|
|   H    E E E +Q     H    E E E +Q    4x     E E E E E E E E E +Q
||------------------|------------------||-||--------------------------|
||o-----------------|-----------------o||-||o-------------------------|
||------------------|------------------||-||--------------4p3---------|
||------------------|------------------||-||------------------6-(6)---|
||o------2p1--------|------2p1--------o||-||o-------------------------|
||--0--------4-(4)--|-0--------3-(3)---||-||--0-0-0-0-0-0-------------|


  PM--------|     ~~~~~~
  |-3-| |-3-| |-3-|
  E E E E E E E E E +Q
|-------------------------||-|
|------------------------o||-|
|-------------------------||-|
|-------------------------||-|
|-------------2p1--------o||-|
|-0-0-0-0-0-0-----3-(3)---||-|
|
| PM--------|     ~~~~~~
| |-3-| |-3-| |-3-|
| E E E E E E E E E +Q
|-------------------------||-|
|------------------------o||-|
|-------------4p3---------||-|
|-----------------5-(5)---||-|
|------------------------o||-|
|-0-0-0-0-0-0-------------||-|


    PM--------|     ~~~~~~   PM--------|     ~~~~~~
    |-3-| |-3-| |-3-|        |-3-| |-3-| |-3-|
    E E E E E E E E E +Q     E E E E E E E E E +Q
||-------------------------|-------------------------||
||o------------------------|------------------------o||
||-------------------------|-------------------------||
||-------------------------|-------------------------||
||o-------------2p1--------|-------------2p1--------o||
||--0-0-0-0-0-0-----4-(4)--|-0-0-0-0-0-0-----3-(3)---||
|
|   PM--------|     ~~~~~~   PM--------|     ~~~~~~
|   |-3-| |-3-| |-3-|        |-3-| |-3-| |-3-|
|   E E E E E E E E E +Q     E E E E E E E E E +Q
||--------------7p6--------|-------------7p6---------||
||o-----------------9-(9)--|-----------------8-(8)--o||
||-------------------------|-------------------------||
||-------------------------|-------------------------||
||o------------------------|------------------------o||
||--0-0-0-0-0-0------------|-0-0-0-0-0-0-------------||


 .
  C#5
  Gtr II
  W            +W            +W            +W
  |             |             |             |
  /             /             /             /

  Gtr I
       PM-|          PM-|          PM-|          PM-|
  H    Q  Q     H    Q  Q     H    Q  Q     H    Q  Q
|------------|-------------|-------------|--------------|
|------------|-------------|-------------|--------------|
|------------|-------------|-------------|--------------|
|-6----------|--6----------|--6----------|--6-----------|
|-4----4--4--|--4----4--4--|--4----4--4--|--4----4--4---|
|------4--4--|-------4--4--|-------4--4--|-------4--4---|


                                              C#D5   C#D5
                                              |3|    |3|
  E Q.   +H       +W            +W            E Q Q  E Q Q
  | |     |        |             |            | | |  | | |
  / /     /        /             /            / / /  / / /

          PM-|          PM-|          PM-|
                                              |3|    |3|
  E Q.    Q  Q     H    Q  Q     H    Q  Q    E Q Q  E Q Q
|---------------|-------------|-------------|----------------||
|---------------|-------------|-------------|----------------||
|---------------|-------------|-------------|----------------||
|-6-6-----------|--6----------|--6----------|-6-7-7--6-7-7---||
|-4-4-----4--4--|--4----4--4--|--4----4--4--|-4-5-5--4-5-5---||
|---------4--4--|-------4--4--|-------4--4--|----------------||


    C#5
    Gtrs I, II
         PM-|         PM-|         PM-|         PM-|
    H    Q  Q    H    Q  Q    H    Q  Q    H    Q  Q
||-------------|------------|------------|------------|
||o------------|------------|------------|------------|
||-------------|------------|------------|------------|
||--6----------|-6----------|-6----------|-6----------|
||o-4----4--4--|-4----4--4--|-4----4--4--|-4----4--4--|
||-------4--4--|------4--4--|------4--4--|------4--4--|


  G5
  W          W          W          W
|----------|----------|----------|-------||
|----------|----------|----------|------o||
|----------|----------|----------|-------||
|----------|----------|----------|-------||
|-5--------|-5--------|-5--------|-5----o||
|-3--------|-3--------|-3--------|-3-----||


 Guitar Solo
  G#5        F#5  A5       G#5            F#5  A5
  Gtrs I, II
  W          H      H       W             H      H
  |          |      |       |             |      |
  /          /      /       /             /      /

  Gtr V
  ~~~~~~~~~~~~~~~~~~~~~~~~~~~~~
  W          H      H       H.       Q    H      H
|----------|-------------|--------------|-------------|
|----------|-------------|--------------|-------------|
|----------|-------------|--------------|-8----/14----|
|-6--------|-7----/11----|-10-------10--|-------------|
|----------|-------------|--------------|-------------|
|----------|-------------|--------------|-------------|
|
| Gtr VI
| ~~~~~~~~~~~~~~~~~~~~~~~~~~~~~
| W          H      H       H.       Q    H      H
|----------|-------------|--------------|-------------|
|----------|-------------|--------------|-------------|
|----------|-------------|--------------|-------------|
|----------|-------------|--------------|-------------|
|----------|-------------|--------------|-6----/12----|
|-4--------|-5-----/9----|--8--------8--|-------------|


  G#5              F#5          A5              G#5
   W                H             H              W
   |                |             |              |
   /                /             /              /

   ~~~                                           ~~
                        |--3--|       |--3--|
   H.         Q     Q   E  E  E   Q   E  E  E    H     S  S  S  S  S  S  S  S
|----------------|----------------------------|-------------------------------|
|----------------|-13--13-13-12-/22--22-22-22-|-21----------------------------|
|-13---------13--|----------------------------|-------------------------------|
|----------------|-10--10-10--9-/19--19-19-19-|-18----18h19p18----18h19p18----|
|-11---------11--|----------------------------|----------------20----------20-|
|----------------|----------------------------|-------------------------------|
|
|  ~~~              ~~                           ~~~~~~~~~
|                                     |--3--|
|  H      Q   Q     H             Q   E  E  E    H     H
|----------------|----------------------------|-------------------------------|
|----------------|-13-----------/22--22-22-22-|-21----21----------------------|
|-13-----13--13--|----------------------------|-------------------------------|
|----------------|-10-----------/19--19-19-19-|-18----18----------------------|
|-11-----11--11--|----------------------------|-------------------------------|
|----------------|----------------------------|-------------------------------|


  F#5                                    A5
   H                                      H
   |                                      |
   /                                      /

   |--------6--------|  |------6-------|  |------6-------|  |------6-------|
   S  S     S  S  S  S  S  S  S  S  S  S  S  S  S  S  S  S  S  S  S  S  S  S
|--------------------------------------------------------------------------------|
|--------------------------------------------------------------------------------|
|--------------------------------------------------------------------------------|
|-18h19p===18----18h19p18----18h19p18----18h19p18----18h19p18----18h19p18--------|
|-------------20----------20----------20----------20----------20----------20-----|
|--------------------------------------------------------------------------------|
|
|                       |------6-------|  |------6-------|  |------6-------|
|  S     S     E        S  S  S  S  S  S  S  S  S  S  S  S  S  S  S  S  S  S
|--------------------------------------------------------------------------------|
|--------------------------------------------------------------------------------|
|--------------------------------------------------------------------------------|
|-18h===19p===18-------18h19p18----18h19p18----18h19p18----18h19p18----18h19p====|
|-------------------------------20----------20----------20----------20-----------|
|--------------------------------------------------------------------------------|


  G#5                                               F#5                  A5
   W                                                 H                    H
   |                                                 |                    |
   /                                                 /                    /

   ~~
                               |--3---|   |--3--|    |---3----|  |--3--|  |--3--|  |--3--|
   Q                 Q         E   E  E   E  E  E    E  E     E  E  E  E  E  E  E  E  E  E
|-------------------------------------------------|----------------------------------------|
|-------------------------------------------------|----------------------------------------|
|----------------------------\11--11-11--11s14-14-|-14s17----17-17s20-20-20-20-20-20-20-20-|
|-18----------------19----------------------------|----------------------------------------|
|-------------------------------------------------|----------------------------------------|
|-------------------------------------------------|----------------------------------------|
|
|  |------6-------|                       |--3--|                |--3--|  |--3--|  |--3--|
|  S  S  S  S  S  S  S  S  E  +Q          E  E  E    E     E     E  E  E  E  E  E  E  E  E
|-------------------------------------------------|----------------------------------------|
|-------------------------------------------------|----------------------------------------|
|---------------------------------------\14-14-14-|-14----14----14-14-14-14s11-11-11-11-11-|
|-18----18h19p18----18-19-18-(18)-----------------|----------------------------------------|
|----20----------20-------------------------------|----------------------------------------|
|-------------------------------------------------|----------------------------------------|


  G#5                                   F#5                  A5
   W                                     H                    H
   |                                     |                    |
   /                                     /                    /

            ~~~
   |--3--|                                           |--3--|  |---3----|  |--3---|
   E  E  E  H.                           E     E     E  E  E  E  S  S  E  E  E   E
|-------------------------------------|-20----20----20p17--------------------------|
|-------------------------------------|-------------------19-16h19p16----16--------|
|-20s17-17-17-------------------------|-------------------------------17----17-----|
|-------------------------------------|-----------------------------------------19-|
|-------------------------------------|--------------------------------------------|
|-------------------------------------|--------------------------------------------|
|
|  |--3--|  |--3--|  |--3--|  |--3--|    |---3----|                       |3-|
|  E  E  E  E  E  E  E  E  E  E  E  E    E  E     E  Q        Q           E  Q
|-------------------------------------|----------------------17--------------------|
|-------------------------------------|----------------------------------16-16\----|
|-14s17-17-17s20-20-20-20-20-20-20-20-|-20s17----17-17-----------------------------|
|-------------------------------------|--------------------------------------------|
|-------------------------------------|--------------------------------------------|
|-------------------------------------|--------------------------------------------|


  G#5                             F#5                  A5
    W                              H                    H
    |                              |                    |
    /                              /                    /

    ~~~~                           ~~                   ~~
                     |---3----|                |--3--|              |---3----|
    H         E   E  E  E     E    Q           E  E  E  Q           E  S  S  E
|-------------------------------|----------------------------------------------|
|-------------------------------|-------------------------------------16h19p16-|
|--17--------17--17-17-17----17-|-17----------17-17-17-17----------17----------|
|-------------------------------|----------------------------------------------|
|-------------------------------|----------------------------------------------|
|-------------------------------|----------------------------------------------|
|
|   ~~~~~~~~~~~~~
|                                  |---3----|  |--3--|  |---3----|  |---3----|
|   Q.    E  +Q.           E       E  S  S  E  E  E  E  E  E  S  S  E  E     E
|-/20----20-(20)----------20----|-17-14h17----14----14-------------------------|
|-------------------------------|----------16----16----16----------------------|
|-------------------------------|-------------------------17-14h17p14----------|
|-------------------------------|-------------------------------------16----14-|
|-------------------------------|----------------------------------------------|
|-------------------------------|----------------------------------------------|


  G#5                                                   F#5     A5
   W                                                     H      H
   |                                                     |      |
   /                                                     /      /

                                                         ~~~~~~~~~~~~
   |------6-------|  |------6-------|  |--3--|
   S  S  S  S  S  S  S  S  S  S  S  S  S  S  S  Q   E    Q   Q  Q  Q
|-----------------------------------------------------|-----------------||
|----16h19p16----16-----------------------------------|-----------------||
|-17----------17----17p14h17p14----14-----------------|--8---8--8--8----||
|-------------------------------16----16p13h16-13\----|-----------------||
|-----------------------------------------------------|-----------------||
|-----------------------------------------------------|-----------------||
|
|  ~~                                           ~~~
|  H                                   E        Q.       H      H
|-----------------------------------------------------|-----------------||
|-----------------------------------------------------|-----------------||
|-----------------------------------------------------|-----------------||
|-13--------------------------------------------------|-----------------||
|-------------------------------------12--------------|-----------------||
|----------------------------------------------11-----|-11\-------------||


   .
    C#5
    Gtrs I, II
         PM-|         PM-|         PM-|         PM-|
    H    Q  Q    H    Q  Q    H    Q  Q    H    Q  Q
||-------------|------------|------------|-------------||
||o------------|------------|------------|------------o||
||-------------|------------|------------|-------------||
||--6----------|-6----------|-6----------|-6-----------||
||o-4----4--4--|-4----4--4--|-4----4--4--|-4----4--4--o||
||-------4--4--|------4--4--|------4--4--|------4--4---||


             ~~~~~~            ~~~~~~
         |-3-|             |-3-|
    H    E E E +Q     H    E E E +Q    4x
||------------------|------------------||-|
||o-----------------|-----------------o||-|
||------------------|------------------||-|
||------------------|------------------||-|
||o------2p1--------|------2p1--------o||-|
||--0--------4-(4)--|-0--------3-(3)---||-|


                G#5                 G5
    PM--------|         PM--------|
    |-3-| |-3-| |-3-|   |-3-| |-3-| |-3-|
    E E E E E E Q Q Q   E E E E E E Q Q Q
||--------------------|----------------------||
||o-------------------|---------------------o||
||--------------------|----------------------||
||--------------------|----------------------||
||o-------------6-6-6-|-------------5-5-5---o||
||--0-0-0-0-0-0-4-4-4-|-0-0-0-0-0-0-3-3-3----||


  E5
  W          +W           +W           +W           Q   Q  H
|----------|------------|------------|------------|-------------|
|----------|------------|------------|------------|-------------|
|----------|------------|------------|------------|-------------|
|----------|------------|------------|------------|-------------|
|-2--------|-(2)--------|-(2)--------|-(2)--------|-2\----------|
|-0--------|-(0)--------|-(0)--------|-(0)--------|-0\----------|


                    E5G5    E5
                    PM
                    |-3-|
  Wx7          H    Q Q Q   Q  Q  H
|------------|------------|------------*|
|------------|------------|------------*|
|------------|------------|------------*|
|------------|------------|------------*|
|------------|------2-5-5-|-2----------*|
|------------|------0-3-3-|-0----------*|



Duration Legend
---------------
W - whole; H - half; Q - quarter; E - 8th; S - 16th; T - 32nd; X - 64th; a - acciaccatura
+ - note tied to previous; . - note dotted; .. - note double dotted
Uncapitalized letters represent notes that are staccato (1/2 duration)
Irregular groupings are notated above the duration line
Duration letters will always appear directly above the note/fret number it represents the
duration for.  Duration letters with no fret number below them represent rests.  Multi-
bar rests are notated in the form Wxn, where n is the number of bars to rest for.  Low
melody durations appear below the staff

Tablature Legend
----------------
 h   - hammer-on
 p   - pull-off
 b   - bend
 pb  - pre-bend
 r   - bend release (if no number after the r, then release immediately)
 /\  - slide into or out of (from/to "nowhere")
 s   - legato slide
 S   - shift slide
 - natural harmonic
[n]  - artificial harmonic
n(n) - tapped harmonic
 ~   - vibrato
 tr  - trill
 T   - tap
 TP  - trem. picking
 PM  - palm muting
\n/  - tremolo bar dip; n = amount to dip
 \n  - tremolo bar down
 n/  - tremolo bar up
/n\  - tremolo bar inverted dip
 =   - hold bend; also acts as connecting device for hammers/pulls
 <> - volume swell (louder/softer)
 x   - on rhythm slash represents muted slash
 o   - on rhythm slash represents single note slash

Misc Legend
-----------
 |  - bar
||  - double bar
||o - repeat start
o|| - repeat end
*|  - double bar (ending)
 :  - bar (freetime)
 $  - Segno
 &  - Coda
Tempo markers -  = BPM(8/16=s8/s16), where s8 = swing 8ths, s16 = swing 16ths

Tap to rate this tab
# A B C D E F G H I J K L M N O P Q R S T U V W X Y Z