Song name
# A B C D E F G H I J K L M N O P Q R S T U V W X Y Z

Sepultura - Unconcious tab

UNCONSCIOUS

from: SEPULTURA
      AGAINST

Tuned to ?

e|-------------|
B|-------------|
G|-------------|
D|-------5b~~--|
A|-------------|
E|--000--------|

e|-----------------|
B|-----------------|
G|-----------------|
D|-----------------|
A|-----------------|
E|--3332-3332-332--|

e|-------------------|
B|-------------------|
G|-------------------|
D|--6-----6-----6----|
A|--4--2--4--2--4-2--|
E|-----0-----0----0--|

Tabbed by Vogi (vogi@geocities.com).
Tap to rate this tab
# A B C D E F G H I J K L M N O P Q R S T U V W X Y Z