Song name
# A B C D E F G H I J K L M N O P Q R S T U V W X Y Z

Sepultura - Sarcastic Existence tab

SARCASTIC EXISTENCE

from: SEPULTURA
      BENEATH THE REMAINS

e|--------------------------------------------|
B|--------------------------------------------|
G|--------------------------------------------|
D|--------------------------------------------|
A|--/8---------/8---------/8------------------|
E|--/6-0-0-0-0-/6-0-0-0-0-/6-0-0-0-0-1-1-1-1--|

e|--------------------------------------------|
B|--------------------------------------------|
G|--------------------------------------------|
D|--------------------------------------------|
A|--/8---------/8---------/8---------3---3----|
E|--/6-0-0-0-0-/6-0-0-0-0-/6-0-0-0-0-1---1----|

e|--------------------------------------------|
B|--------------------------------------------|
G|--------------------------------------------|
D|--------------------------------------------|
A|--/8-------------------------------3---3----|
E|--/6-0-0-0-0-0--0-0-0-0-0--0-0-0-0-1---1----|

e|--------------------------|
B|--------------------------|
G|--------------------------|
D|--3-------------3---------|
A|--1-2-----------1-2----2--|
E|----0----00-0-0---0----0--|

e|--------------------------------------------------------|
B|------------------------10-9----------------------------|
G|--/9-10-9-7-9--9-10-9-7-------/9-10-9-7-9--10^9-9\(7)\--|
D|--------------------------------------------------------|
A|--------------------------------------------------------|
E|--------------------------------------------------------|

e|-------------------|
B|-------------------|
G|-------------------|
D|--7----7----7-8-7--|
A|--6-66-6-66-6-6-6--|
E|-------------------|

Tabbed by Vogi (vogi@geocities.com)
Tap to rate this tab
 
# A B C D E F G H I J K L M N O P Q R S T U V W X Y Z