Song name
# A B C D E F G H I J K L M N O P Q R S T U V W X Y Z

Sepultura - Dictatorshit tab

-------------------------------------------------------------------------------
			     Sepultura - Dictatorshit
-------------------------------------------------------------------------------
Tuning: D G C F A D

d|---------------------------------------------------------------------------|
A|---------------------------------------------------------------------------|
F|---------------------------------------------------------------------------|
C|---------------------------------------------------------------------------|
G|2-----2-2-----2-2-----2-2--------------------------------------------------|
D|0-----0-0-----0-0-----0-0--------------------------------------------------|
  *     * *     * *     * *
d|---------------------------------------------------------------------------|
A|---------------------------------------------------------------------------|
F|---------------------------------------------------------------------------|
C|---------------------------------------------------------------------------|
G|6-7---2-6-7---2-6-7---2-6-7------------------------------------------------|
D|4-5---0-4-5---0-4-5---0-4-5------------------------------------------------|

d|---------------------------------------------------------------------------|
A|---------------------------------------------------------------------------|
F|---------------------------------------------------------------------------|
C|---------------------------------------------------------------------------|
G|6-7---2-6-7---2-6-7---6-2--------------------------------------------------|
D|4-5---0-4-5---0-4-5---4-0--------------------------------------------------|

d|---------------------------------------------------------------------------|
A|---------------------------------------------------------------------------|
F|---------------------------------------------------------------------------|
C|---------------------------------------------------------------------------|
G|7-8---2-7-8---2-2-2---2-2-2---2--------------------------------------------|
D|5-6---0-5-6---0-0-0---0-0-0---0--------------------------------------------|

d|---------------------------------------------------------------------------|
A|---------------------------------------------------------------------------|
F|---------------------------------------------------------------------------|
C|---------------------------------------------------------------------------|
G|2-2---2-2-2---2-2-2---2-2-2---2--------------------------------------------|
D|0-0---0-0-0---0-0-0---0-0-0---0--------------------------------------------|
  * *   * * *   * * *   * * *   *

| *  palm mute
| ^  bend
| /  slide up
| \  slide down
| h  hammer-on
| p  pull-off
| ~  vibrato
| +  harmonic
| x  Mute note
==============================================================================
Tap to rate this tab
 
# A B C D E F G H I J K L M N O P Q R S T U V W X Y Z