Song name
# A B C D E F G H I J K L M N O P Q R S T U V W X Y Z

Sepultura - Death Embryonic Cells tab

E||------|----------------------|--------------------------|
B||------|----------------------|--------------------------|
G||------|----------------------|--------------------------|
D||------|----------------------|--------------------------|
A||------|----------------------|--1-----------------------|
E||------|--------------0-0-0-0-|-------0-0-0--2--0--2--0--|



----------------------------|--------------------------|
----------------------------|--------------------------|
----------------------------|--------------------------|
----------------------------|--------------------------|
--1-------------------------|--1-----------------------|
-------0-0-0-0-0----0-0-0-0-|-------0-0-0--2--0--2--0--|



--------------------------||------------------------|
--------------------------||------------------------|
--------------------------||*-----------------------|
--------------------------||*-----------------------|
--1-----------------1--0--||---1--------------------|
-------0-0-0-0-0----------||------------0--0--0--0--|


                           3x
---------------------------||---------------------------|
---------------------------||---------------------------|
--------------------------*||---------------------------|
--------------------------*||---------------------------|
--------------------1--0---||--1------------------------|
--1--0--0--0--0--0---------||---------------------------|


                                                 2x
|---------------------------|--------------------||--------------------------|
|---------------------------|--------------------||--------------------------|
|*--------------------------|-------------------*||--------------------------|
|*--------------------------|-------------------*||--------------------------|
|---------------------1--0--|--1-----------------||--------------------------|
|---0--0--0--0--1--0--------|--------------------||--0--0--0--0--1--0--0--0--|



--------------------------|-------------------|--------------------------|
--------------------------|-------------------|--------------------------|
--------------------------|-------------------|--------------------------|
--------------------------|-------------------|--------------------------|
--------------------------|-------------------|--------------------------|
--0--0--0--1--0--0--1--0--|--1----------------|--0--0--0--1--0--0--1--0--|



-------------------|--------------------------|--------------------------|
-------------------|--------------------------|--------------------------|
-------------------|--------------------------|--------------------------|
-------------------|--------------------------|--------------------------|
-------------------|--------------------------|--------------------------|
--1----------------|--0--0--0--0--1--0--0--0--|--0--0--0--0--1--0--0--0--|



--------------------------|-------------------------|--------------------------|
--------------------------|-------------------------|--------------------------|
--------------------------|-------------------------|--------------------------|
--------------------------|-------------------------|--------------------------|
--------------------------|-------------------------|--------------------------|
--0--0--0--0--1--0--0--0--|--0--0--0--0--1--0--1----|--0--0--0--0--1--0--0--0--|



--------------------------|--------------------------|-------------------------|
--------------------------|--------------------------|-------------------------|
--------------------------|--------------------------|-------------------------|
--------------------------|--------------------------|-------------------------|
--------------------------|--------------------------|-------------------------|
--0--0--0--0--1--0--0--0--|--0--0--0--0--1--0--0--0--|--0--0--0--0--1--0--1----|



--------------------------|--------------------------|
--------------------------|--------------------------|
--------------------------|--------------------------|
--------------------------|--------------------------|
--------------------------|--------------------------|
--0--0--0--0--1--0--0--0--|--0--0--0--0--1--0--0--0--|



--------------------------|-------------------------|--------------------------|
--------------------------|-------------------------|--------------------------|
--------------------------|-------------------------|--------------------------|
--------------------------|-------------------------|--------------------------|
--------------------------|-------------------------|--------------------------|
--0--0--0--0--1--0--0--0--|--0--0--0--0--1--0--1----|--0--0--0--0--1--0--0--0--|



--------------------------|--------------------------|-------------------------|
--------------------------|--------------------------|-------------------------|
--------------------------|--------------------------|-------------------------|
--------------------------|--------------------------|-------------------------|
--------------------------|--------------------------|-------------------------|
--0--0--0--0--1--0--0--0--|--0--0--0--0--1--0--0--0--|--0--0--0--0--1--0--1----|



--------------------------|--------------------------|
--------------------------|--------------------------|
--------------------------|--------------------------|
--------------------------|--------------------------|
--------------------------|--------------------------|
--0--0--0--0--1--0--0--0--|--0--0--0--0--1--0--0--0--|



--------------------------|-------------------------|
--------------------------|-------------------------|
--------------------------|-------------------------|
--------------------------|-------------------------|
--------------------------|-------------------------|
--0--0--0--0--1--0--0--0--|--0--0--0--0--1--0--1----|


                                                  3x
|---------------------------|---------------------||----------------------|
|---------------------------|---------------------||----------------------|
|*--------------------------|--------------------*||----------------------|
|*--------------------------|--------------------*||----------------------|
|---------------------------|---------------------||-------------6/-6--6--|
|---0--0--0--0--1--0--1--4--|----------4--3-------||--0-------------------|



----------------------|----------------------|---------------------|
----------------------|----------------------|---------------------|
----------------------|----------------------|---------------------|
----------------------|----------------------|---------------------|
--5~---------5/-5--5--|--4~---------4/-4--4--|--2------------------|
----------------------|----------------------|--0------------12/---|



--------------------------|--------------------------|
--------------------------|--------------------------|
--------------------------|--------------------------|
--------------------------|--------------------------|
--------------------------|--------------------------|
--0--0--0--1--0--0--3/-4--|--3--0--0--0--0--0--3/-4--|



--------------------------|--------------------------|
--------------------------|--------------------------|
--------------------------|--------------------------|
--------------------------|--------------------------|
--------------------------|--------------------------|
--3--0--0--0--0--0--3/-4/-|--1--0--0--0--0--0--0--0--|



--------------------------|--------------------------|
--------------------------|--------------------------|
--------------------------|--------------------------|
--------------------------|--------------------------|
--------------------------|--------------------------|
--0--0--0--1--0--0--3/-4--|--3--0--0--0--0--0--3/-4--|



--------------------------|--------------------------|
--------------------------|--------------------------|
--------------------------|--------------------------|
--------------------------|--------------------------|
--------------------------|--------------------------|
--3--0--0--0--0--0--3/-4/-|--1--0--0--0--0--0--0--0--|



--------------------------|--------------------------|
--------------------------|--------------------------|
--------------------------|--------------------------|
--------------------------|--------------------------|
--------------------------|--------------------------|
--0--0--0--1--0--0--3/-4--|--3--0--0--0--0--0--3/-4--|



--------------------------|--------------------------|
--------------------------|--------------------------|
--------------------------|--------------------------|
--------------------------|--------------------------|
--------------------------|--------------------------|
--3--0--0--0--0--0--3/-4/-|--1--0--0--0--0--0--0--0--|



--------------------------|--------------------------|
--------------------------|--------------------------|
--------------------------|--------------------------|
--------------------------|--------------------------|
--------------------------|--------------------------|
--0--0--0--1--0--0--3/-4--|--3--0--0--0--0--0--3/-4--|



--------------------------|--------------------------|
--------------------------|--------------------------|
--------------------------|--------------------------|
--------------------------|--------------------------|
--------------------------|--------------------------|
--3--0--0--0--0--0--3/-4/-|--1--0--0--0--0--0--0--0--|



|---------------------------|--------------------------|
|---------------------------|--------------------------|
|*--------------------------|--------------------------|
|*--------------------------|--------------------------|
|---------------------------|--------------------------|
|---0--2--2--2--2--2--2--2--|--2--2--2--2--2--2--2--2--|



--------------------------|---------------------------||--------------------|
--------------------------|---------------------------||--------------------|
--------------------------|--------------------------*||*-------------------|
--------------------------|--------------------------*||*-------------------|
--------------------------|---------------------------||--------------------|
--0--2--2--2--2--2--2--2--|--0--0--0--0--0--0--0--0---||---2----------------|



----------------------|---------------------||---------------------|
----------------------|---------------------||---------------------|
----------------------|----------x---------*||---------------------|
----------------------|----------x--4------*||---------------------|
-------------------3--|----------x----------||-------------4----4--|
----------0--2--3-----|---------------------||----------3----------|



---------------------------------|----------------------------|
---------------------------------|----------------------------|
---------------------------------|----------------------------|
---------------------------------|----------------------------|
------------------2--------------|--------------------4----4--|
--0-0-0-0-0-0-0-0----0-0-0-0-0-0-|--2--0-0-0-0-0-0-3----------|



---------------------------------|----------------------------|
---------------------------------|----------------------------|
---------------------------------|----------------------------|
---------------------------------|----------------------------|
------------------1--------------|--------------------4----4--|
--0-0-0-0-0-0-0-0----0-0-0-0-0-0-|--2--0-0-0-0-0-0-3----------|



---------------------------------|----------------------------|
---------------------------------|----------------------------|
---------------------------------|----------------------------|
---------------------------------|----------------------------|
------------------1--------------|--------------------4----4--|
--0-0-0-0-0-0-0-0----0-0-0-0-0-0-|--2--0-0-0-0-0-0-3----------|



---------------------------------|----------------------------|
---------------------------------|----------------------------|
---------------------------------|----------------------------|
---------------------------------|----------------------------|
------------------1--------------|--------------------4----4--|
--0-0-0-0-0-0-0-0----0-0-0-0-0-0-|--2--0-0-0-0-0-0-3----------|



-------------------|------------------|-------------------|------------------|
-------------------|------------------|-------------------|------------------|
-------------------|------------------|-------------------|------------------|
-------------------|------------------|-------------------|------------------|
-------------------|------------------|-------------------|------------------|
--2----------------|------------------|--1----------------|------------------|



-------------------|------------------|-------------------|------------------|
-------------------|------------------|-------------------|------------------|
-------------------|------------------|-------------------|------------------|
-------------------|------------------|-------------------|------------------|
-------------------|------------------|-------------------|------------------|
--2----------------|------------------|--1----------------|------------------|



--------------------------|--------------------|--------------------------|
--------------------------|--------------------|--------------------------|
--------------------------|--------------------|--------------------------|
--------------------------|--------------------|--------------------------|
--------------------------|--------------------|--------------------------|
--0--0--0--0--1--0--1--4--|----------4--3------|--0--0--0--1--0--0--3/-4--|



--------------------------|--------------------------|
--------------------------|--------------------------|
--------------------------|--------------------------|
--------------------------|--------------------------|
--------------------------|--------------------------|
--3--0--0--0--0--0--3/-4--|--3--0--0--0--0--0--3/-4/-|



--------------------------|--------------------------|
--------------------------|--------------------------|
--------------------------|--------------------------|
--------------------------|--------------------------|
--------------------------|--------------------------|
--1--0--0--0--0--0--0--0--|--0--0--0--1--0--0--3/-4--|



--------------------------|--------------------------|
--------------------------|--------------------------|
--------------------------|--------------------------|
--------------------------|--------------------------|
--------------------------|--------------------------|
--3--0--0--0--0--0--3/-4--|--3--0--0--0--0--0--3/-4/-|



--------------------------|-----------------------|--------------------------|
--------------------------|-----------------------|--------------------------|
--------------------------|-----------------------|--------------------------|
--------------------------|-----------------------|--------------------------|
--------------------1--0--|--1--------------------|--------------------1--0--|
--1--0--0--0--0--0--------|-----------0--0--0--0--|--1--0--0--0--0--0--------|



-----------------------|--------------------------|-----------------------|
-----------------------|--------------------------|-----------------------|
-----------------------|--------------------------|-----------------------|
-----------------------|--------------------------|-----------------------|
--1--------------------|--------------------1--0--|--1--------------------|
-----------0--0--0--0--|--1--0--0--0--0--0--------|-----------0--0--0--0--|



--------------------------|-----------|---------------------|
--------------------------|-----------|---------------------|
--------------------------|-----------|---------------------|
--------------------------|-----------|---------------------|
--------------------1--0--|--1--------|--0------------------|
--1--0--0--0--0--0--------|-----------|---------4------3----|


                                            2x
|--------------------|----------------------||-------------------|
|--------------------|----------------------||-------------------|
|*-------------------|---------------------*||-------------------|
|*-------------------|----------------3----*||-------------------|
|--------------------|----------1/-2--1-----||-------------------|
|---2----------------|----------------------||--2----------------|



--------------------|---------------------------------|
--------------------|---------------------------------|
--------------------|---------------------------------|
--------------------|--2------------------------------|
--------------------|-----------------3---------------|
----------1----1----|-----1-1-1-1-1-1---1-1-1-1-1-1-1-|



----------------------------|---------------------------------|
----------------------------|---------------------------------|
----------------------------|---------------------------------|
----------------------------|--2------------------------------|
----------------------------|-----------------3---------------|
--1-1-1-1-1-1-1-1-1----1----|-----1-1-1-1-1-1---1-1-1-1-1-1-1-|



----------------------------|---------------------------------|
----------------------------|---------------------------------|
----------------------------|---------------------------------|
----------------------------|--2------------------------------|
----------------------------|-----------------3---------------|
--1-1-1-1-1-1-1-1-1----1----|-----1-1-1-1-1-1---1-1-1-1-1-1-1-|



----------------------------|---------------------------------|
----------------------------|---------------------------------|
----------------------------|---------------------------------|
----------------------------|--2------------------------------|
----------------------------|-----------------3---------------|
--1-1-1-1-1-1-1-1-1----1----|-----1-1-1-1-1-1---1-1-1-1-1-1-1-|



----------------------------||-----------------------------------|
----------------------------||-----------------------------------|
----------------------------||*----------------------------------|
----------------------------||*----------------------------------|
----------------------------||-----------------------------------|
--1-1-1-1-1-1-1-1-1----1----||---2-2-2-2-2-2-2-2-2-2-2-2-2-2-2-2-|



------------------------------||----------------------------------|
------------------------------||----------------------------------|
-----------------------------*||----------------------------------|
-----------------------------*||----------------------------------|
------------------1/-2--1-----||----------------------------------|
--2-2-2-2-2-2-2-2-------------||--2-2-2-2-2-2-2-2-2-2-2-2-2-2-2-2-|



-----------------------------|----------------------------------|
-----------------------------|----------------------------------|
-----------------------------|----------------------------------|
-----------------------------|----------------------------------|
------------------1/-2--1----|----------------------------------|
--2-2-2-2-2-2-2-2------------|--2-2-2-2-2-2-2-2-2-2-2-2-2-2-2-2-|



----------------------------|----------------------------------|
----------------------------|----------------------------------|
----------------------------|----------------------------------|
----------------------------|----------------------------------|
----------------------------|----------------------------------|
--2-2-2-2-2-2-2-2-1----1----|--2-2-2-2-2-2-2-2-2-2-2-2-2-2-2-2-|



----------------------------|----------------------------------|
----------------------------|----------------------------------|
----------------------------|----------------------------------|
----------------------------|----------------------------------|
----------------------------|----------------------------------|
--2-2-2-2-2-2-2-2-1----1----|--2-2-2-2-2-2-2-2-2-2-2-2-2-2-2-2-|



----------------------------|----------------------------------|
----------------------------|----------------------------------|
----------------------------|----------------------------------|
----------------------------|----------------------------------|
----------------------------|----------------------------------|
--2-2-2-2-2-2-2-2-1----1----|--0-0-0-0-0-0-0-0-0-0-0-0-0-0-0-0-|



------------------------------|----------------------------------|
------------------------------|----------------------------------|
------------------------------|----------------------------------|
------------------------------|----------------------------------|
----------5-------------6-----|----------------------------------|
--3-3-3-3----3--4-4-4-4----0--|--0-0-0-0-0-0-0-0-0-0-0-0-0-0-0-0-|



------------------------------|----------------------------------|
------------------------------|----------------------------------|
------------------------------|----------------------------------|
------------------------------|----------------------------------|
----------5-------------6-----|----------------------------------|
--3-3-3-3----3--4-4-4-4----0--|--0-0-0-0-0-0-0-0-0-0-0-0-0-0-0-0-|



------------------------------|----------------------------------|
------------------------------|----------------------------------|
------------------------------|----------------------------------|
------------------------------|----------------------------------|
----------5-------------6-----|----------------------------------|
--3-3-3-3----3--4-4-4-4----0--|--0-0-0-0-0-0-0-0-0-0-0-0-0-0-0-0-|



------------------------------|---------------------------------|
------------------------------|---------------------------------|
------------------------------|---------------------------------|
------------------------------|--2------------------------------|
----------5-------------6-----|-----------------3---------------|
--3-3-3-3----3--4-4-4-4----0--|-----1-1-1-1-1-1---1-1-1-1-1-1-1-|



----------------------------|---------------------------------|
----------------------------|---------------------------------|
----------------------------|---------------------------------|
----------------------------|--2------------------------------|
----------------------------|-----------------3---------------|
--1-1-1-1-1-1-1-1-1----1----|-----1-1-1-1-1-1---1-1-1-1-1-1-1-|



----------------------------|---------------------------------|
----------------------------|---------------------------------|
----------------------------|---------------------------------|
----------------------------|--2------------------------------|
----------------------------|-----------------3---------------|
--1-1-1-1-1-1-1-1-1----1----|-----1-1-1-1-1-1---1-1-1-1-1-1-1-|



----------------------------|---------------------------------|
----------------------------|---------------------------------|
----------------------------|---------------------------------|
----------------------------|--2------------------------------|
----------------------------|-----------------3---------------|
--1-1-1-1-1-1-1-1-1----1----|-----1-1-1-1-1-1---1-1-1-1-1-1-1-|



----------------------------||-----------------------|
----------------------------||-----------------------|
----------------------------||*----------------------|
----------------------------||*----------------------|
----------------------------||-----------------------|
--1-1-1-1-1-1-1-1-1----1----||---0----10--9----------|



-------------------------||-------------------||---------------------||
-------------------------||-------------------||---------------------||
------------------------*||-------------------||*-------------------*||
------------------------*||-------------------||*-------------------*||
-------------------------||-------------------||---------------------||
--0----10--9----6--6-----||--0----------------||---0-----------------||


                                                         2x
-----------------------||--------------------------------||
-----------------------||--------------------------------||
-----------------------||*------------------------------*||
-----------------------||*------------------------------*||
-----------------------||--------------------------------||
--0----0----0----0--0--||---0-0-0----0-0-0-0-0--0-0-0-0--||


                                                                2x
------------------------------||--------------------------------||
------------------------------||--------------------------------||
------------------------------||*------------------------------*||
------------------------------||*------------------------------*||
------------------------------||--------------------------------||
--0-0-0----0-0-0-0-0--0-0-0-0-||---0-0-0----0-0-0-0-0--0-0-0-0--||


                                                                2x
------------------------------||--------------------------------||
------------------------------||--------------------------------||
------------------------------||*------------------------------*||
------------------------------||*------------------------------*||
------------------------------||--------------------------------||
--0-0-0----0-0-0-0-0--0-0-0-0-||---0-0-0----0-0-0-0-0--0-0-0-0--||



------------------------------|--------------------------|
------------------------------|--------------------------|
------------------------------|--------------------------|
------------------------------|--------------------------|
------------------------------|--------------------------|
--0-0-0----0-0-0-0-0--0-0-0-0-|--0--0--0--1--0--0--3/-4--|



--------------------------|--------------------------|
--------------------------|--------------------------|
--------------------------|--------------------------|
--------------------------|--------------------------|
--------------------------|--------------------------|
--3--0--0--0--0--0--3/-4--|--3--0--0--0--0--0--3/-4/-|



--------------------------|--------------------------|
--------------------------|--------------------------|
--------------------------|--------------------------|
--------------------------|--------------------------|
--------------------------|--------------------------|
--1--0--0--0--0--0--0--0--|--0--0--0--1--0--0--3/-4--|



--------------------------|--------------------------|
--------------------------|--------------------------|
--------------------------|--------------------------|
--------------------------|--------------------------|
--------------------------|--------------------------|
--3--0--0--0--0--0--3/-4--|--3--0--0--0--0--0--3/-4/-|



--------------------------|--------------------------|
--------------------------|--------------------------|
--------------------------|--------------------------|
--------------------------|--------------------------|
--------------------------|--------------------------|
--1--0--0--0--0--0--0--0--|--0--0--0--1--0--0--3/-4--|



--------------------------|--------------------------|
--------------------------|--------------------------|
--------------------------|--------------------------|
--------------------------|--------------------------|
--------------------------|--------------------------|
--3--0--0--0--0--0--3/-4--|--3--0--0--0--0--0--3/-4/-|



--------------------------|--------------------------|
--------------------------|--------------------------|
--------------------------|--------------------------|
--------------------------|--------------------------|
--------------------------|--------------------------|
--1--0--0--0--0--0--0--0--|--0--0--0--1--0--0--3/-4--|



--------------------------|--------------------------|
--------------------------|--------------------------|
--------------------------|--------------------------|
--------------------------|--------------------------|
--------------------------|--------------------------|
--3--0--0--0--0--0--3/-4--|--3--0--0--0--0--0--3/-4/-|



--------------------------|-----------------------|--------------------------|
--------------------------|-----------------------|--------------------------|
--------------------------|-----------------------|--------------------------|
--------------------------|-----------------------|--------------------------|
--------------------1--0--|--1--------------------|--------------------1--0--|
--3--0--0--0--0--0--------|-----------0--0--0--0--|--1--0--0--0--0--0--------|



-----------------------|--------------------------|-----------------------|
-----------------------|--------------------------|-----------------------|
-----------------------|--------------------------|-----------------------|
-----------------------|--------------------------|-----------------------|
--1--------------------|--------------------1--0--|--1--------------------|
-----------0--0--0--0--|--1--0--0--0--0--0--------|-----------0--0--0--0--|



--------------------------|-----------------------|--------------------------|
--------------------------|-----------------------|--------------------------|
--------------------------|-----------------------|--------------------------|
--------------------------|-----------------------|--------------------------|
--------------------1--0--|--1--------------------|--------------------1--0--|
--1--0--0--0--0--0--------|-----------0--0--0--0--|--1--0--0--0--0--0--------|



------------------------|-------------------------|------------------------|
------------------------|-------------------------|------------------------|
------------------------|-------------------------|------------------------|
------------------------|-------------------------|------------------------|
--1----------1----------|--1----------------1/-0--|--1----------1----------|
-------0--0-------0--0--|-------0--0--0--0--------|-------0--0-------0--0--|
Tap to rate this tab
 
# A B C D E F G H I J K L M N O P Q R S T U V W X Y Z