Guitaretab - guitar tabs
Song name
# A B C D E F G H I J K L M N O P Q R S T U V W X Y Z

Sepultura - Nuclear Seven tab

This is the main riff throughout the song, the only other bit is the interlude and solo, 
I donít know yet.

Tuning: Drop-D

* = Palm mute
h = Hammer on
p = Pull off
[ Tab from: http://www.guitaretab.com/s/sepultura/73747.html ]
e|-------------------------------------------|
B|-------------------------------------------|
G|-------------------------------------------|
D|-2-------2-------2-------2-------2h3-------|
A|-2-------2-------2-------2-------2h3-------|
D|-2-0-0-0-2-0-0-0-2-0-0-0-2-0-0-0-2h3-0-0-0-|
     * * *   * * *   * * *   * * *     * * *

e|-------------------------------------------|
B|-------------------------------------------|
G|-------------------------------------------|
D|-3-------3-------3-------3-------3p2-------|
A|-3-------3-------3-------3-------3p2-------|
D|-3-0-0-0-3-0-0-0-3-0-0-0-3-0-0-0-3p2-0-0-0-|
     * * *   * * *   * * *   * * *     * * *

Easy :)
Related for Nuclear Seven tab