Song name
# A B C D E F G H I J K L M N O P Q R S T U V W X Y Z

Sepultura - Mind War tab

Tuning: E A D G H E

Intro:

|------------------|
|------------------|
|------------------|  repeat 8 times
|--5-5-4-x-4-x-4-x-|
|--5-5-4-x-4-x-4-x-|
|--3-3-2-x-2-x-2-x-|

Verse:

|----------|
|----------|
|----------|
|--5-5-5-4-| repeat 4 times
|--5-5-5-4-|
|--3-3-3-2-|

Now play the intro 4 times again, an after the intro play the verse 4 more times.

Then play:

|---------------------------|
|---------------------------|
|---------------------------| repeat 4 times
|--7-x-7-x-7-x--3-3--3-3-3--|
|--7-x-7-x-7-x--3-3--3-3-3--|
|--5-x-5-x-5-x--1-1--1-1-1--|

In the Chorus just play the verse 8 times.

Break:

|--------------------------------------|
|--------------------------------------|
|--------------------------------------|
|--4--4-4/3/4--4-4/3/4--4-4/3/5--5-5/3-| repeat it a few times an the whole 
|--4--4-4/3/4--4-4/3/4--4-4/3/5--5-5/3-| solo.
|--2--2-2/1/2--2-2/1/2--2-2/1/3--3-3/1-|

This is just the rythem guitar because i don't know what the solo guitar is playing.

Enjoy.


Tap to rate this tab
# A B C D E F G H I J K L M N O P Q R S T U V W X Y Z