Guitaretab - guitar tabs
Song name
# A B C D E F G H I J K L M N O P Q R S T U V W X Y Z

Sepultura - From The Past Comes The Storms tab

-------------------------------------------------------------------------------

                 From the past comes the storms  - Sepultura
-------------------------------------------------------------------------------
Tabbed by: guitarcrazy1991
Email: guitarcrazy1991@hotmail.com

Tuning: standard E A D G B e

right i noticed this tab was only available in guitar pro form so i tabbed it out for
users like me that dont have access to guitar pro its fairly easy
i learnt it a few weeks ago and ive done this from memory so dont hate me if theres a 
but i got my guitar and checked and it seems ok to me.

 |-----------------|-----------------|-----------------|-----------------|
 |-----------------|-----------------|-----------------|-----------------|
 |-----------------|-----------------|-----------------|-----------------|
 |-----------------|-----------------|-----------------|-----------------|
 |-----------------|-----------------|-----------------|-----------------|
 |-110-000-000-000-|-110-000-000-000-|-110-000-000-000-|-4-44444433333333|

 |-----------------|-----------------|-----------------|-----------------||
 |-----------------|-----------------|-----------------|-----------------||
 |-----------------|-----------------|-----------------|-----------------||
 |-----------------|-----------------|-----------------|-----------------||
 |-----------------|-----------------|-----------------|-----------------||
 |-110-000-000-000-|-110-000-000-000-|-110-000-000-000-|-4-44444433333333||
                   3/4

 |-----------------|-------------||
 |-----------------|-------------||
 |-----------------|-------------||
 |-----------------|-------------||
 |-3---------------|-------------||
 |-1---------------|-------------||
 4/4

 |-----------------|-----------------|-----------------|-----------------|
 |-----------------|-----------------|-----------------|-----------------|
 |-----------------|-----------------|-----------------|-----------------|
 |-----------------|-----------------|-----------------|-----------------|
 |-----------------|-----------------|-----------------|-----------------|
 |-110-000-000-000-|-110-000-000-000-|-110-000-000-000-|-4-44444433333333|

 |-----------------|-----------------|-----------------|-----------------|
 |-----------------|-----------------|-----------------|-----------------|
 |-----------------|-----------------|-----------------|-----------------|
 |-----------------|-----------------|-----------------|-----------------|
 |-----------------|-----------------|-----------------|-----------------|
 |-110-000-000-000-|-110-000-000-000-|-110-000-000-000-|-4-44444433333333|

 |-----------------|-----------------|-----------------|-----------------|
 |-----------------|-----------------|-----------------|-----------------|
 |-----------------|-----------------|-----------------|-----------------|
 |-----------------|-----------------|-----------------|-----------------|
 |-----------------|-----------------|-----------------|-----------------|
 |-110-000-000-000-|-110-000-000-000-|-110-000-000-000-|-4-44444433333333|

 |-----------------|-----------------|-----------------|-----------------||
 |-----------------|-----------------|-----------------|-----------------||
 |-----------------|-----------------|-----------------|-----------------||
 |-----------------|-----------------|-----------------|-----------------||
 |-----------------|-----------------|-----------------|-6-------5-------||
 |-110-000-000-000-|-110-000-000-000-|-110-000-000-000-|-4-------3-------||

  verse 1
 |-----------------|-----------------|-----------------|-----------------|
 |-----------------|-----------------|-----------------|-----------------|
 |-----------------|-----------------|-----------------|-----------------|
 |-----------------|-----------------|-----------------|-----------------|
 |-----------------|-----------------|-----------------|-----------------|
 |-110-000-000-000-|-110-000-000-000-|-110-000-000-000-|-4-44444433333333|

 |-----------------|-----------------|-----------------|-----------------|
 |-----------------|-----------------|-----------------|-----------------|
 |-----------------|-----------------|-----------------|-----------------|
 |-----------------|-----------------|-----------------|-----------------|
 |-----------------|-----------------|-----------------|-----------------|
 |-110-000-000-000-|-110-000-000-000-|-110-000-000-000-|-4-44444433333333|

 |-----------------|-----------------|-----------------|-----------------|
 |-----------------|-----------------|-----------------|-----------------|
 |-----------------|-----------------|-----------------|-----------------|
 |-----------------|-----------------|-----------------|-----------------|
 |-----------------|-----------------|-----------------|-----------------|
 |-110-000-000-000-|-110-000-000-000-|-110-000-000-000-|-4-44444433333333|

 |-----------------|-----------------|-----------------|-----------------||
 |-----------------|-----------------|-----------------|-----------------||
 |-----------------|-----------------|-----------------|-----------------||
 |-----------------|-----------------|-----------------|-----------------||
 |-----------------|-----------------|-----------------|-----------------||
 |-110-000-000-000-|-110-000-000-000-|-110-000-000-000-|-4-44444433333333||

 |-----------------|-----------------|-----------------|-----------------|
 |-----------------|-----------------|-----------------|-----------------|
 |-----------------|-----------------|-----------------|-----------------|
 |-----------------|-----------------|-------------6666|-------------6666|
 |-2222222233225522|-3322222233225522|---------5555----|---------5555----|
 |-----------------|-----------------|-44444444--------|-44444444--------|

 |-----------------|-----------------|-----------------|-----------------||
 |-----------------|-----------------|-----------------|-----------------||
 |-----------------|-----------------|-----------------|-----------------||
 |-----------------|-----------------|-------------6666|-----------------||
 |-2222222233225522|-3322222233225522|---------5555----|-----------------||
 |-----------------|-----------------|-44444444--------|-4444444433331100||
  verse 2

 |-----------------|-----------------|-----------------|-----------------|
 |-----------------|-----------------|-----------------|-----------------|
 |-----------------|-----------------|-----------------|-----------------|
 |-----------------|-----------------|-----------------|-----------------|
 |-----------------|-----------------|-----------------|-----------------|
 |-110-000-000-000-|-110-000-000-000-|-110-000-000-000-|-4-44444433333333|

 |-----------------|-----------------|-----------------|-----------------|
 |-----------------|-----------------|-----------------|-----------------|
 |-----------------|-----------------|-----------------|-----------------|
 |-----------------|-----------------|-----------------|-----------------|
 |-----------------|-----------------|-----------------|-----------------|
 |-110-000-000-000-|-110-000-000-000-|-110-000-000-000-|-4-44444433333333|

 |-----------------|-----------------|-----------------|-----------------|
 |-----------------|-----------------|-----------------|-----------------|
 |-----------------|-----------------|-----------------|-----------------|
 |-----------------|-----------------|-----------------|-----------------|
 |-----------------|-----------------|-----------------|-----------------|
 |-110-000-000-000-|-110-000-000-000-|-110-000-000-000-|-4-44444433333333|

                                                       200 bpm
 |-----------------|-----------------|-----------------|-----------------||
 |-----------------|-----------------|-----------------|-----------------||
 |-----------------|-----------------|-----------------|-----------------||
 |-----------------|-----------------|-----------------|-----------------||
 |-----------------|-----------------|-----------------|-1-0-5-------3---||
 |-110-000-000-000-|-110-000-000-000-|-110-000-000-000-|-----3---0-3-1---||

 |-----------------|-----------------|-----------------|-----------------|
 |-----------------|-----------------|-----------------|-----------------|
 |-----------------|-----------------|-----------------|-----------------|
 |-----------------|-----------------|-----------------|-----------------|
 |-----6---5---6---|-5---6---5---5-8-|-----6---5---6---|-5---6---5---5-8-|
 |-0-0-4-0-3-0-4-0-|-3-0-4-0-3-0-3-6-|-0-0-4-0-3-0-4-0-|-3-0-4-0-3-0-3-6-|
                                                                         2/4

 |-----------------|-----------------|-----------------|-----------------|---------||
 |-----------------|-----------------|-----------------|-----------------|---------||
 |-----------------|-----------------|-----------------|-----------------|---------||
 |-----------------|-----------------|-----------------|-----------------|---------||
 |-----6---5---6---|-5---6---5---5-8-|-----6---5---6---|-5---6---5---5-8-|-6-------||
 |-0-0-4-0-3-0-4-0-|-3-0-4-0-3-0-3-6-|-0-0-4-0-3-0-4-0-|-3-0-4-0-3-0-3-6-|-4-------||

  bridge
 4/4
 |-----------------|-----------------|-----------------|-----------------|
 |-----------------|-----------------|-----------------|-----------------|
 |-----------------|-----------------|-----------------|-----------------|
 |-----------------|-----------------|-----------------|-----------------|
 |-5---------------|---------6-------|-3---------------|---------6-------|
 |-3-000-000-000-00|-0-0000004-------|-1-000-000-000-00|-0-0000004-------|

 |-----------------|-----------------|-----------------|-----------------|
 |-----------------|-----------------|-----------------|-----------------|
 |-----------------|-----------------|-----------------|-----------------|
 |-----------------|-----------------|-----------------|-----------------|
 |-5---------------|---------6-------|-3---------------|---------6-------|
 |-3-000-000-000-00|-0-0000004-------|-1-000-000-000-00|-0-0000004-------|

 |-----------------|-----------------|-----------------|-----------------|
 |-----------------|-----------------|-----------------|-----------------|
 |-----------------|-----------------|-----------------|-----------------|
 |-----------------|-----------------|-----------------|-----------------|
 |-5---------------|---------6-------|-3---------------|---------6-------|
 |-3-000-000-000-00|-0-0000004-------|-1-000-000-000-00|-0-0000004-------|

 |-----------------|-----------------|-----------------|-----------------||
 |-----------------|-----------------|-----------------|-----------------||
 |-----------------|-----------------|-----------------|-----------------||
 |-----------------|-----------------|-----------------|-----------------||
 |-5---------------|---------6-------|-3---------------|---------6-------||
 |-3-000-000-000-00|-0-0000004-------|-1-000-000-000-00|-0-0000004-------||

 |-----------------|-----------------|-----------------|-----------------|
 |-----------------|-----------------|-----------------|-----------------|
 |-----------------|-----------------|-----------------|-----------------|
 |---------------4-|---------------4-|---------------4-|-----------------|
 |-----------3-----|-----------3-----|-----------3-----|---------5---5---|
 |-2-2-2-2-2---2---|-2-2-2-2-2---2---|-2-2-2-2-2---2---|-2-2-2-223---3---|

 |-----------------|-----------------|-----------------|-----------------|
 |-----------------|-----------------|-----------------|-----------------|
 |-----------------|-----------------|-----------------|-----------------|
 |---------------4-|---------------4-|---------------4-|-----------------|
 |-----------3-----|-----------3-----|-----------3-----|---------5---5---|
 |-2-2-2-2-2---2---|-2-2-2-2-2---2---|-2-2-2-2-2---2---|-2-2-2-223---3---|

 |-----------------|-----------------|-----------------|-----------------|
 |-----------------|-----------------|-----------------|-----------------|
 |-----------------|-----------------|-----------------|-----------------|
 |---------------4-|---------------4-|---------------4-|-----------------|
 |-----------3-----|-----------3-----|-----------3-----|---------5---5---|
 |-2-2-2-2-2---2---|-2-2-2-2-2---2---|-2-2-2-2-2---2---|-2-2-2-223---3---|

 |-----------------|-----------------|-----------------|-----------------||
 |-----------------|-----------------|-----------------|-----------------||
 |-----------------|-----------------|-----------------|-----------------||
 |---------------4-|---------------4-|---------------4-|-----------------||
 |-----------3-----|-----------3-----|-----------3-----|---------5---5---||
 |-2-2-2-2-2---2---|-2-2-2-2-2---2---|-2-2-2-2-2---2---|-2-2-2-223---3---||
  232 bpm

 |-----------------|-----------------|-----------------|-----------------||
 |-----------------|-----------------|-----------------|-----------------||
 |-----------------|-----------------|-----------------|-----------------||
 |-----------------|-----------------|-----------------|-----------------||
 |-4---------------|(4)--------------|(4)--------------|(4)--------------||
 |-2---------------|(2)--------------|(2)--------------|(2)--------------||

 |-----------------|-----------------|-----------------|-----------------|
 |-----------------|-----------------|-----------------|-----------------|
 |-----------------|-----------------|-----------------|-----------------|
 |-----------------|-------------4---|-3---------------|-3-----------3---|
 |-2---------------|-------------2---|-1-11111111111111|-1-1111111---1---|
 |-0-00000000000000|-3-3333332-------|-----------------|-----------------|

 |-----------------|-----------------|-----------------|-----------------|
 |-----------------|-----------------|-----------------|-----------------|
 |-----------------|-----------------|-----------------|-----------------|
 |-----------------|-------------4---|-3---------------|-3-----------3---|
 |-2---------------|-------------2---|-1-11111111111111|-1-1111111---1---|
 |-0-00000000000000|-3-3333332-------|-----------------|-----------------|

 |-----------------|-----------------|-----------------|-----------------|
 |-----------------|-----------------|-----------------|-----------------|
 |-----------------|-----------------|-----------------|-----------------|
 |-----------------|-------------4---|-3---------------|-3-----------3---|
 |-2---------------|-------------2---|-1-11111111111111|-1-1111111---1---|
 |-0-00000000000000|-3-3333332-------|-----------------|-----------------|

 |-----------------|-----------------|-----------------|-----------------||
 |-----------------|-----------------|-----------------|-----------------||
 |-----------------|-----------------|-----------------|-----------------||
 |-----------------|-------------4---|-3---------------|-3-----------3---||
 |-2---------------|-------------2---|-1-11111111111111|-1-1111111---1---||
 |-0-00000000000000|-3-3333332-------|-----------------|-----------------||

 |-----------------|-----------------|-----------------|-----------------|
 |-----------------|-----------------|-----------------|-----------------|
 |-----------------|-----------------|-----------------|-----------------|
 |---------------4-|---------------4-|---------------4-|-----------------|
 |-----------3-----|-----------3-----|-----------3-----|---------5---5---|
 |-222222222---2---|-222222222---2---|-222222222---2---|-222222223---3---|
[ Tab from: http://www.guitaretab.com/s/sepultura/83121.html ]
 |-----------------|-----------------|-----------------|-----------------|
 |-----------------|-----------------|-----------------|-----------------|
 |-----------------|-----------------|-----------------|-----------------|
 |---------------4-|---------------4-|---------------4-|-----------------|
 |-----------3-----|-----------3-----|-----------3-----|---------5---5---|
 |-222222222---2---|-222222222---2---|-222222222---2---|-222222223---3---|

 |-----------------|-----------------|-----------------|-----------------|
 |-----------------|-----------------|-----------------|-----------------|
 |-----------------|-----------------|-----------------|-----------------|
 |---------------4-|---------------4-|---------------4-|-----------------|
 |-----------3-----|-----------3-----|-----------3-----|---------5---5---|
 |-222222222---2---|-222222222---2---|-222222222---2---|-222222223---3---|

 |-----------------|-----------------|-----------------|-----------------||
 |-----------------|-----------------|-----------------|-----------------||
 |-----------------|-----------------|-----------------|-----------------||
 |---------------4-|---------------4-|---------------4-|-----------------||
 |-----------3-----|-----------3-----|-----------3-----|---------5---5---||
 |-222222222---2---|-222222222---2---|-222222222---2---|-222222223---3---||

  guitar solo
 |-----------------|-----------------|-----------------|-----------------|
 |-----------------|-----------------|-----------------|-----------------|
 |-----------------|-----------------|-----------------|-----------------|
 |---------------4-|---------------4-|---------------4-|-----------------|
 |-----------3-----|-----------3-----|-----------3-----|---------5---5---|
 |-222222222---2---|-222222222---2---|-222222222---2---|-222222223---3---|

 |-----------------|-----------------|-----------------|-----------------||
 |-----------------|-----------------|-----------------|-----------------||
 |-----------------|-----------------|-----------------|-----------------||
 |---------------4-|---------------4-|---------------4-|-----------------||
 |-----------3-----|-----------3-----|-----------3-----|---------5---5---||
 |-222222222---2---|-222222222---2---|-222222222---2---|-222222223---3---||

 |-----------------|-----------------|-----------------|-----------------|
 |-----------------|-----------------|-----------------|-----------------|
 |-----------------|-----------------|-----------------|-----------------|
 |---------------6-|---------------6-|---------------6-|-----------------|
 |-----------5-----|-----------5-----|-----------5-----|---------7---7---|
 |-444444444---4---|-444444444---4---|-444444444---4---|-444444445---5---|

 |-----------------|-----------------|-----------------|-----------------||
 |-----------------|-----------------|-----------------|-----------------||
 |-----------------|-----------------|-----------------|-----------------||
 |---------------6-|---------------6-|---------------6-|-----------------||
 |-----------5-----|-----------5-----|-----------5-----|---------7---7---||
 |-444444444---4---|-444444444---4---|-444444444---4---|-444444445---5---||

 |-----------------|-----------------|-----------------|-----------------|
 |-----------------|-----------------|-----------------|-----------------|
 |-----------------|-----------------|-----------------|-----------------|
 |-----------------|-------------4---|-3---------------|-3-----------3---|
 |-2---------------|-------------2---|-1-11111111111111|-1-1111111---1---|
 |-0-00000000000000|-3-3333332-------|-----------------|-----------------|

 |-----------------|-----------------|-----------------|-----------------|
 |-----------------|-----------------|-----------------|-----------------|
 |-----------------|-----------------|-----------------|-----------------|
 |-----------------|-------------4---|-3---------------|-3-----------3---|
 |-2---------------|-------------2---|-1-11111111111111|-1-1111111---1---|
 |-0-00000000000000|-3-3333332-------|-----------------|-----------------|

 |-----------------|-----------------|-----------------|-----------------|
 |-----------------|-----------------|-----------------|-----------------|
 |-----------------|-----------------|-----------------|-----------------|
 |-----------------|-------------4---|-3---------------|-3-----------3---|
 |-2---------------|-------------2---|-1-11111111111111|-1-1111111---1---|
 |-0-00000000000000|-3-3333332-------|-----------------|-----------------|

 |-----------------|-----------------|-----------------|-----------------||
 |-----------------|-----------------|-----------------|-----------------||
 |-----------------|-----------------|-----------------|-----------------||
 |-----------------|-------------4---|-3---------------|-3-----------3---||
 |-2---------------|-------------2---|-1-11111111111111|-1-1111111---1---||
 |-0-00000000000000|-3-3333332-------|-----------------|-----------------||

 |-----------------|-----------------|-----------------|-----------------|
 |-----------------|-----------------|-----------------|-----------------|
 |-----------------|-----------------|-----------------|-----------------|
 |-9---------------|-6---------------|-----------------|-----------------|
 |-7-------8-------|-4-------5-------|-2---------------|-----------------|
 |---------6-------|---------3-------|-0---------------|-----------------|

 |-----------------|-----------------|
 |-----------------|-----------------|
 |-----------------|-----------------|
 |-----------------|-----------------|
 |-----------------|-----------------|
 |-0-0-000-0-0-000-|-0-0-000-0-0-000-|

 |-----------------|-----------------|-----------------|-----------------|
 |-----------------|-----------------|-----------------|-----------------|
 |-----------------|-----------------|-----------------|-----------------|
 |-----------------|-------------8\7-|-----------------|-----------------|
 |-----------------|-------------6\5-|-----------------|-----------------|
 |-0-0-000-0-0-000-|-0-0-6-0-5-0-----|-0-0-000-0-0-000-|-0-0-000-0-0-000-|

 |-----------------|-----------------|-----------------|-----------------|
 |-----------------|-----------------|-----------------|-----------------|
 |-----------------|-----------------|-----------------|-----------------|
 |-----------------|-------------8\7-|-----------------|-----------------|
 |-----------------|-------------6\5-|-----------------|-----------------|
 |-0-0-000-0-0-000-|-0-0-6-0-5-0-----|-0-0-000-0-0-000-|-0-0-000-0-0-000-|

 |-----------------|-----------------|-----------------|-----------------|
 |-----------------|-----------------|-----------------|-----------------|
 |-----------------|-----------------|-----------------|-----------------|
 |-----------------|-------------8\7-|-----------------|-----------------|
 |-----------------|-------------6\5-|-----------------|-----------------|
 |-0-0-000-0-0-000-|-0-0-6-0-5-0-----|-0-0-000-0-0-000-|-0-0-000-0-0-000-|

 |-----------------|-----------------||-----------------|-----------------|
 |-----------------|-----------------||-----------------|-----------------|
 |-----------------|-----------------||-----------------|-----------------|
 |-----------------|-------------8\7-||-----------------|-----------------|
 |-----------------|-------------6\5-||-4---------------|-4---------------|
 |-0-0-000-0-0-000-|-0-0-6-0-5-0-----||-2-2222222-222222|-2-2222222-222222|

 |-----------------|-----------------|-----------------|-----------------|
 |-----------------|-----------------|-----------------|-----------------|
 |-----------------|-----------------|-----------------|-----------------|
 |-----------------|-----------------|-----------------|-----------------|
 |-4---------------|-4---------------|-5---------------|-5---------------|
 |-2-2222222-222222|-2-2222222-222222|-3-3333333-333333|-3-3333333-333333|

 |-----------------|-----------------|-----------------|-----------------|
 |-----------------|-----------------|-----------------|-----------------|
 |-----------------|-----------------|-----------------|-----------------|
 |-------------7-6-|-------------7-6-|-------------7-6-|-------------7-6-|
 |-2-2-7-6---------|-2-2-7-6---------|-2-2-7-6---------|-2-2-7-6---------|
 |-0-0-----7-6-----|-0-0-----7-6-----|-0-0-----7-6-----|-0-0-----7-6-----|

 |-----------------|-----------------|-----------------|-----------------||
 |-----------------|-----------------|-----------------|-----------------||
 |-----------------|-----------------|-----------------|-----------------||
 |-----------------|-----------------|-----------------|-----------------||
 |-2---------------|(2)--------------|(2)--------------|(2)--------------||
 |-0---------------|(0)--------------|(0)--------------|(0)--------------||

 |-----------------|-----------------|-----------------|-----------------|
 |-----------------|-----------------|-----------------|-----------------|
 |-----------------|-----------------|-----------------|-----------------|
 |-------------7-6-|-------------7-6-|-------------7-6-|-------------7-6-|
 |-7-6-----7-6-----|-7-6-----7-6-----|-7-6-----7-6-----|-7-6-----7-6-----|
 |-----7-6---------|-----7-6---------|-----7-6---------|-----7-6---------|

 |                                                                       |
 |-----------------|-----------------|-----------------|-----------------|
 |-----------------|-----------------|-----------------|-----------------|
 |-----------------|-----------------|-----------------|-----------------|
 |-----------------|-----------------|-----------------|-----------------|
 |-----------------|-----------------|-----------------|-----------------|
 |-0-0-0-0-0-0-0-0-|-0-0-0-0-0-0-0-0-|-0-0-0-0-0-0-0-0-|-0-0-0-0-0-0-0-0-|

 |-----------------|-----------------|-----------------|-----------------|
 |-----------------|-----------------|-----------------|-----------------|
 |-----------------|-----------------|-----------------|---tr------------|
 |-------------7-6-|-------------7-6-|-------------7-6-|--6^7^6----tr----|
 |-7-6-----7-6-----|-7-6-----7-6-----|-7-6-----7-6-----|----------6^7^6--|
 |-----7-6---------|-----7-6---------|-----7-6---------|-----------------|

 |                                                                       |
 |-----------------|-----------------|-----------------|-----------------||
 |-----------------|-----------------|-----------------|-----------------||
 |-----------------|-----------------|-----------------|-----------------||
 |-----------------|-----------------|-----------------|-----------------||
 |-----------------|-----------------|-----------------|-------------6-2-||
 |-0-0-0-0-0-0-0-0-|-0-0-0-0-0-0-0-0-|-0-0-0-0-0-0-0-0-|-0-0-0-0-0-0-4-0-||

 |-----------------|-----------------|-----------------|-----------------|
 |-----------------|-----------------|-----------------|-----------------|
 |-----------------|-----------------|-----------------|-----------------|
 |-----------------|-----------------|-----------------|-----------------|
 |-2-------2-------|-2---------------|-2-------2-------|-2---------------|
 |-0---0-0-0---0-0-|-0---0-0-3-0-1-0-|-0---0-0-0---0-0-|-0---0-0-3-0-1-0-|

 |-----------------|-----------------|-----------------|-----------------||
 |-----------------|-----------------|-----------------|-----------------||
 |-----------------|-----------------|-----------------|-----------------||
 |-----------------|-----------------|-----------------|-----------------||
 |-2-------2-------|-2---------------|-2-------2-------|-2---------------||
 |-0---0-0-0---0-0-|-0---0-0-3-0-1-0-|-0---0-0-0---0-0-|-0---0-0-3-0-1-0-||

 |-----------------|-----------------||
 |-----------------|-----------------||
 |-----------------|-----------------||
 |-----------------|-----------------||
 |-3---------------|(3)--------------||
 |-1---------------|(1)--------------||

  240 bpm
 |-----------------|-----------------|-----------------|-----------------|
 |-----------------|-----------------|-----------------|-----------------|
 |-----------------|-----------------|-----------------|-----------------|
 |-----------------|-----------------|-----------------|-----------------|
 |-----------------|-----------------|-----------------|-----------------|
 |-110-000-000-000-|-110-000-000-000-|-110-000-000-000-|-4-44444433333333|

 |-----------------|-----------------|-----------------|-----------------|
 |-----------------|-----------------|-----------------|-----------------|
 |-----------------|-----------------|-----------------|-----------------|
 |-----------------|-----------------|-----------------|-----------------|
 |-----------------|-----------------|-----------------|-----------------|
 |-110-000-000-000-|-110-000-000-000-|-110-000-000-000-|-4-44444433333333|

 |-----------------|-----------------|-----------------|-----------------|
 |-----------------|-----------------|-----------------|-----------------|
 |-----------------|-----------------|-----------------|-----------------|
 |-----------------|-----------------|-----------------|-----------------|
 |-----------------|-----------------|-----------------|-----------------|
 |-110-000-000-000-|-110-000-000-000-|-110-000-000-000-|-4-44444433333333|

 |-----------------|-----------------|-----------------|-----------------||
 |-----------------|-----------------|-----------------|-----------------||
 |-----------------|-----------------|-----------------|-----------------||
 |-----------------|-----------------|-----------------|-----------------||
 |-----------------|-----------------|-----------------|-----------------||
 |-110-000-000-000-|-110-000-000-000-|-110-000-000-000-|-4-44444433333333||

                   3/4
 |-----------------|-------------||
 |-----------------|-------------||
 |-----------------|-------------||
 |-----------------|-------------||
 |-3---------------|-------------||
 |-1---------------|-------------||

  verse 3
 |-----------------|-----------------|-----------------|-----------------|
 |-----------------|-----------------|-----------------|-----------------|
 |-----------------|-----------------|-----------------|-----------------|
 |-----------------|-----------------|-----------------|-----------------|
 |-----------------|-----------------|-----------------|-----------------|
 |-110-000-000-000-|-110-000-000-000-|-110-000-000-000-|-4-44444433333333|

 |-----------------|-----------------|-----------------|-----------------|
 |-----------------|-----------------|-----------------|-----------------|
 |-----------------|-----------------|-----------------|-----------------|
 |-----------------|-----------------|-----------------|-----------------|
 |-----------------|-----------------|-----------------|-----------------|
 |-110-000-000-000-|-110-000-000-000-|-110-000-000-000-|-4-44444433333333|

 |-----------------|-----------------|-----------------|-----------------|
 |-----------------|-----------------|-----------------|-----------------|
 |-----------------|-----------------|-----------------|-----------------|
 |-----------------|-----------------|-----------------|-----------------|
 |-----------------|-----------------|-----------------|-----------------|
 |-110-000-000-000-|-110-000-000-000-|-110-000-000-000-|-4-44444433333333|

 |-----------------|-----------------|-----------------|-----------------|
 |-----------------|-----------------|-----------------|-----------------|
 |-----------------|-----------------|-----------------|-----------------|
 |-----------------|-----------------|-----------------|-----------------|
 |-----------------|-----------------|-----------------|-6---------------|
 |-110-000-000-000-|-110-000-000-000-|-110-000-000-000-|-4---------------|

 |-----------------|-----------------|-----------------||
 |-----------------|-----------------|-----------------||
 |-----------------|-----------------|-----------------||
 |-----------------|-----------------|-----------------||
 |-5---------------|-3-22-2--2--2--2-|-2---------------||
 |-3---------------|-1-00-0--0--0--0-|-0---------------||
                     {  3 }  {  3  }

Thats all folks, have fun!


| /  slide up
| \  slide down
| h  hammer-on
| p  pull-off
| ~  vibrato
| +  harmonic
| x  Mute note
===============================================================================
Related for From The Past Comes The Storms tab
×
Best way to learn
"From The Past Comes The Storms"