Song name
# A B C D E F G H I J K L M N O P Q R S T U V W X Y Z

Sepultura - Morbid Vision tab

This is Morbid Vision album by sepultura without CRUCIFIXION and FUNERAL RITES
Sepultura rulezz
by Iorgu Mihai,ROMANIA
iorgumihai@yahoo.com


1.MORBID VISIONS

e|---------|
B|---------|
G|---------|
D|---------|
A|------3--|
E|--0-0-1--|

e|-----------|
B|-----------|
G|-----------|
D|-----------|
A|--3-3-3-3--|
E|--1-1-1-1--|

e|----------------------------------|
B|----------------------------------|
G|----------------------------------|
D|----------------------------------|
A|------------------------------8---|
E|--0-0-6^0-0-0-4^0-0-0-6^0-0-0-6---|

e|--------------------------------|
B|--------------------------------|
G|--------------------------------|
D|--------------------------------|
A|--------7\-------6\-------8--8--|
E|--0-0-0----0-0-0----0-0-0-6--6--|

e|-------------------------------------|
B|-------------------------------------|
G|-------------------------------------|
D|-------------------------------------|
A|-------------------/7-7-7-7-7-7-7-7--|
E|--0-0-0-0-0-0-0-0--------------------|

e|---------------|
B|---------------|
G|---------------|
D|--9-8---6-5----|
A|--7-6-9-4-3-6--|
E|------7-----4--|

e|-------------------------------------------------------------------------
B|-------------------------------------------------------------------------
G|-------------------------------------------------------------------------
D|-------------------------------------------------------------------------
A|--------------------------7-7-7-7-6\--------------------------7-7-7-7-6\-
E|--0-0-0-0-...-6-6-6-6-...-------------0-0-0-0-...-6-6-6-6-...------------

e|------------------------------------------------------------------------|
B|------------------------------------------------------------------------|
G|------------------------------------------------------------------------|
D|------------------------------------------------------------------------|
A|------------------------------------------------------------------------|
E|--0-0-0-...-6-6-6-6-...--8-8-8-8-7\-0-0-0-0-...-6-6-6-6-...-8-8-8-8-7\--|

e|---------------|
B|---------------|
G|---------------|
D|-----4--3------|
A|--2--2--1--3---|
E|--0--------1---|

e|-------------------|
B|-------------------|
G|-------------------|
D|------------7------|
A|------7-6-7---7-6--|
E|--0-0--------------|

e|---------------------------------|
B|---------------------------------|
G|---------------------------------|
D|----------------------4-----3----|
A|----------------------2-----1----|
E|--0-0-0-0-1-0-0-3-0-0---0-0------|



2.MORBID VISIONS

e|----------------------------------------------|
B|----------------------------------------------|
G|----------------------------------------------|
D|----------------------------------------------|
A|------7-----8-------8------7-----8-------3-3--|
E|--0-0---0-0---0-0-0-6--0-0---0-0---0-0-0-1-1--|

e|---------------------|
B|---------------------|
G|---------------------|
D|---------------------|
A|---------------------|
E|--6-6-6-6-6-6-6-...--|

e|---------------------------------------------------|
B|---------------------------------------------------|
G|---------------------------------------------------|
D|---------------------------------------------------|
A|--2-----2-----5\4/5-2-----2-----2-----5\4/5-8------|
E|--0-0-0-0-0-0-3\2/3-0-0-0-0-0-0-0-0-0-3\2/3-6-0-0--|

e|---------------------------------|
B|---------------------------------|
G|---------------------------------|
D|---------------------------------|
A|---------------------------------|
E|--0-0-0-0-3-0-0-2-0-0-0-0-3-0-6--|





3.MORBID VISIONS

e|---------------------|
B|---------------------|
G|---------------------|
D|--9----10--12--8--9--|
A|--7----8---10--6--7--|
E|---------------------|

e|---------------------------------------------------|
B|---------------------------------------------------|
G|---------------------------------------------------|
D|----------9-9--------10-10--------8-8---------9-9--|
A|----------7-7---------8-8---------6-6---------7-7--|
E|--0-0-0-0-----0-0-0-0-----0-0-0-0-----0-0-0-0------|

e|-----------------------------|
B|-----------------------------|
G|-----------------------------|
D|-----------------------------|
A|------------------------8-8--|
E|--0-0-0-0-0-0-0-0-0-0-0-6-6--|

e|--------------------------------------------------------------------|
B|--------------------------------------------------------------------|
G|--------------------------------------------------------------------|
D|--------------------------------------------------------------------|
A|--7-7-7-7-7-7-7-7------------------6-6-6-6-6-6-6-6------------------|
E|-------------------7-7-7-7-8-8-8-8-----------------7-7-7-7-8-8-8-8--|

e|-----------------------------------------------------------------------|
B|-----------------------------------------------------------------------|
G|-----------------------------------------------------------------------|
D|-----------------------------------------------------------------------|
A|--------------------------------------1-1-1-1-1-1-1-1-1-1-1-1-1-1-1-1--|
E|--0-0-0-0-0-0-0-0-0-0-0-0-0-0-0-0-2-3----------------------------------|

e|-----------------------------------------------------------|
B|-----------------------------------------------------------|
G|-----------------------------------------------------------|
D|-----------------------------------------------------------|
A|--14-----14-----15-----13-----14-----14-----15-----17------|
E|--12-0-0-12-0-0-13-0-0-11-0-0-12-0-0-12-0-0-13-0-0-15-0-0--|

e|---------------------------------|
B|---------------------------------|
G|---------------------------------|
D|---------------------------------|
A|------------------------------1--|
E|--0-0-0-0-0-0-0-0-0-0-0-0-2-3----|



4.MORBID VISIONS

e|-------------------------|
B|-------------------------|
G|-------------------------|
D|-------------------------|
A|------8-----8-------3-2--|
E|--0-0-6-0-0-6-0-0-0-1-0--|

e|-------------------------------------|
B|-------------------------------------|
G|-------------------------------------|
D|-------------------------------------|
A|----------------------------------6--|
E|--6-4-0-0-6-4-0-0-6-4-0-0-6-4-0-0-4--|

e|--------------------------------------------|
B|--------------------------------------------|
G|--------------------------------------------|
D|--------------------------------------------|
A|--------------------------------------------|
E|--0-0-0-0-0-0-0-0-...--6-6-6-6-6-6-6-6-...--|




5.SHOW ME THE WRATH
e|-----------------------------------|
B|-----------------------------------|
G|-----------------------------------|
D|-----------------------------------|
A|----2-3-------1-----2-3---------1--|
E|--0-----0-1-2---2-0-----0-1-2-3----|

e|-----------------------------|
B|-----------------------------|
G|-----------------------------|
D|----------4-----5------------|
A|----------2-----3---------2--|
E|--0-0-0-0---0-0---0-0-2^3----|

e|-----------------------------------------------------------|
B|-----------------------------------------------------------|
G|-----------------------------------------------------------|
D|--------------9-------------10------------9-------------7--|
A|--------------7-------------8-------------7-------------5--|
E|--0-0-0-0-0-----0-0-0-0-0-----0-0-0-0-0-----0-0-0-0-0-0----|

e|---------------------------|
B|---------------------------|
G|---------------------------|
D|---------------------------|
A|--2-2-2-2-...-3-3-3-3-...--|
E|---------------------------|

e|-------------|
B|-------------|
G|-------------|
D|--------7----|
A|----7-8---8--|
E|--0----------|

e|---------------------------------------------------|
B|---------------------------------------------------|
G|---------------------------------------------------|
D|---------------------------------------------------|
A|---------------------------------------------------|
E|--0-0-0-0-...-8-8-8-8-...-7-7-7-7-...-6-6-6-6-...--|

e|-------------|
B|-------------|
G|-------------|
D|-----4--5-4--|
A|--4--2--3-2--|
E|--2----------|

iorgumihai@yahoo.com



Tap to rate this tab
# A B C D E F G H I J K L M N O P Q R S T U V W X Y Z