Song name
# A B C D E F G H I J K L M N O P Q R S T U V W X Y Z

Serafin - No Happy tab

Guitar 1

Cm			   D#m
Sunday morning a revelation

A#			        C#
I saw myself as my own salvation

G#				  F#m
I banged my head my head against a brick wall and

G#
Turned around it was him

C#				      D#m
He said gently now "Who's your Daddy?"

A#				   C#
And I said I did not know but sadly

G#			 F#m
Make a sound and make it loud

			G#
With the lightness of a cloud

		   Cm
Write a song about today

	 A#     G	 Cm
There is nothing more to say

Cm				         D#m
He said "I thought that nothing mattered"

A#					 C#
And thats why my perception is in tatters

G#		      F#m
Come with me and I'll show you something

G#
come with me and you'll see

Cm					   D#m
I look over there where that bird is standing

A#				       C#
And I sat next to the one thats landing

G#			    F#m
That bird knows how good it feels

		     G#
To exist beneath the wheels

		   Cm
Of a tidal wave of pain

	 A#	 G#      Cm
And His Happiness We've Gained

Go and get no happy

Go and get no happy

Go and get no happy
                                  C5  C#5  D5  D#5
Go and get no happy

-----------------------------------------------------------------------------------------
Guitar 2

Keyboard riff (1:21, 2:35)  Possibly With A Chorus Effect

                             1St Time     2nd Time

|-------8-6-------------|--------------|-----6---6-|
|-----------8-6-8-6---6-|--------------|---8---8---|
|-------------------8---|--8-55-8-5----|-----------|
|-----------------------|--------------|-----------|
|-----------------------|--------------|-----------|
|-----------------------|--------------|-----------|

(2:24) Distortion
|----------|
|----------|
|--7^7^7^--|
|----------|
|----------|
|----------|


Chorus
                             etc. listen to timing, and amount of times
|---10-10-11-11-10-10-11-11-10-10-11-11-10-10-11-11---------10-10-11-11--|
|---------------------------------------------------8-8-9-9--------------|
|------------------------------------------------------------------------|
|------------------------------------------------------------------------|
|------------------------------------------------------------------------|
|------------------------------------------------------------------------|
Tap to rate this tab
# A B C D E F G H I J K L M N O P Q R S T U V W X Y Z