Song name
# A B C D E F G H I J K L M N O P Q R S T U V W X Y Z

Seraphs Coal - Find Me Here tab

Find me here - Seraphs Coal
Tabber - shonofear


Tuning: D#

Intro 1
 Gtr 1
-|-----------------------|-----------------------|
-|-----------------------|-----------------------|
-|-9---10---7--9-10--9---|-5---7----4--5--4------|
-|---r---r-------------r-|---r---r-----------7---|
-|-7----8---5--7-/8--7---|-3---5----2-/3--2----r-|
-|-----------------------|------------------/5---|

 Gtr 2
-|-----------------------|-------------------------|
-|-----------------------|-------------------------|
-|-----------------------|-9---10---7--9-10--9-----|
-|-----------------------|---r---r-------------r---|
-|-----------------------|-7----8---5--7-/8--7--\/-|
-|-----------------------|-------------------------|

Intro 2
 Gtr 1
-|--------------------------------------------------------------------------------|
-|--------------------------------------------------------------------------------|
-|-9------9------99-10-----10-----1010--7------7------77--9------9------9------99-|
-|--------------------------------------------------------------------------------|
-|-7-7777-7-7777-77--8-8888-8-8888-8-8--5-5555-5-5555-55--7-7777-7-7777-7-7777-77-|
-|---****---****-------****---****--------****---****-------****---****---****----|

-|-------------------------------------------------------|------|
-|-------------------------------------------------------|------|
-|-5------5------55--7------7------77--4------5-------44-|------|
-|-------------------------------------------------------|-7----|
-|-3-3333-3-3333-33--5-5555-5-5555-55--2-2222-3-3333--22-|-7-16-|
-|---****---****-------****---****-------****---****-----|-5----|

 Gtr 2
-|-------------------------x3-|--------------|------|
-|----------------------------|--------------|------|
-|-14--14--1414--14--14--1414-|-14--14--1414-|------|
-|----------------------------|--------------|-7----|
-|-12--12--1212--12--12--1212-|-12--12--1212-|-7-16-|
-|----------------------------|--------------|-5----|

Intro 3
 Gtr 1
-|--------------------|----------x3-|-----|
-|--------------------|-------------|-----|
-|-9----7----10---12--|-------------|-----|
-|---6----6----6----6-|-2------22-3-|-2---|
-|-7----5-----8---10--|-2-2222-22-3-|-2-r-|
-|--------------------|-0-0000-00-1-|-0---|
                          ****
 Gtr 2
-|----------------------------------------|-------x3-|-----|
-|----------------------------------------|----------|-----|
-|-22222222-/44444444-/55555555-/77777777-|----------|-9-r-|
-|----------------------------------------|-66-666-7-|-----|
-|----------------------------------------|----------|-----|
-|----------------------------------------|----------|-----|

Verse 1 - x2
 Gtr 1
-|----------------------------------|----------------------------------|
-|----------------------------------|----------------------------------|
-|----------------------------------|-7------55------------------------|
-|-7------77------55------33--------|----------------55------77--------|
-|-7-7-7--77-7-7--55-5-5--33-3-3333-|-5-5-5--33-3-3--55-5-5--77-7-7777-|
-|-5-5-5--55-5-5--33-3-3--11-1-1111-|---*-*-----*-*--33-3-3--55-5-5555-|
     * *     * *     * *     * ****                     * *     * ****

 Gtr 2
-|----------------------------------|----------------------------------|
-|----------------------------------|----------------------------------|
-|----------------------------------|----------------------------------|
-|-7------77------55------33--------|-7------77------55------77--------|
-|-7-7-7--77-7-7--55-5-5--33-3-3333-|-7-7-7--77-7-7--55-5-5--77-7-7777-|
-|-5-5-5--55-5-5--33-3-3--11-1-1111-|-5-5-5--55-5-5--33-3-3--55-5-5555-|
     * *     * *     * *     * ****     * *     * *     * *     * ****

 Both Gtrís
-|-------------------------------|------|
-|-------------------------------|------|
-|-------------------------------|------|
-|-7------77------55------33-333-|-5----|
-|-7-7-7--77-7-7--55-5-5--33-333-|-5-16-|
-|-5-5-5--55-5-5--33-3-3--11-111-|-3----|
     * *     * *     * *

Chorus 1
 Gtr 1
-|------------------------------------|------------|
-|------------------------------------|------------|
-|------------------------------------|-5----------|
-|-7-7-7----7-7-7----3-3-3----3-3-3---|-5-16--2----|
-|-7-7-7-r--7-7-7-r--3-3-3-r--3-3-3-r-|-3-----2-16-|
-|-5-5-5----5-5-5----1-1-1----1-1-1---|-------0----|

 Gtr 2
-|-----------------------1--------1---|-----------------------0--------0---|
-|-----5--------5----------1--------1-|-----5--------5----------0--------0-|
-|-------5--------5-------------------|-5-5---5--5-5---5-------------------|
-|-7-7------7-7------3-3------3-3-----|-5-5------5-5------2-2------2-2-----|
-|-7-7------7-7------3-3------3-3-----|-3-3------3-3------2-2------2-2-----|
-|-5-5------5-5------1-1------1-1-----|-------------------0-0------0-0-----|

 Gtr 1
-|------------------------------------|-------------------------------------|
-|------------------------------------|-------------------------------------|
-|------------------------------------|----5------5------5------5-----------|
-|-7-7-7----7-7-7----3-3-3----3-3-3---|-55-5-5555-5-5555-5-5555-5--5----6---|
-|-7-7-7-r--7-7-7-r--3-3-3-r--3-3-3-r-|-33-3-3333-3-3333-3-3333-3--5-8--6-8-|
-|-5-5-5----5-5-5----1-1-1----1-1-1---|-**---****---****---****----3----4---|

 Gtr 2
-|-----------------------1--------1---|-------------------------------------|
-|-----5--------5----------1--------1-|-------------------------------------|
-|-------5--------5-------------------|----5------5------5------5-----------|
-|-7-7------7-7------3-3------3-3-----|-55-5-5555-5-5555-5-5555-5--5----6---|
-|-7-7------7-7------3-3------3-3-----|-33-3-3333-3-3333-3-3333-3--5-8--6-8-|
-|-5-5------5-5------1-1------1-1-----|-**---****---****---****----3----4---|

Verse 1 - x1


Verse 2
 Gtr 1
-|----------------------------------|----------------------------|
-|----------------------------------|----------------------------|
-|----------------77------55--------|-7------55------77------9---|
-|-7------77--------------55-5-5555-|--------55-5-5------------r-|
-|-7-7-7--77-7-7--55-5-5--33-3-3333-|-5-5-5--33-3-3--55-55--/7---|
-|-5-5-5--55-5-5-----*-*-----*-****-|---*-*-----*-*-----**-------|
     * *     * *
 Gtr 2
-|----------------------------------|----------------------------|
-|----------------------------------|----------------------------|
-|----------------------------------|----------------------------|
-|-7------77------55------33--------|-7------77------55----------|
-|-7-7-7--77-7-7--55-5-5--33-3-3333-|-7-7-7--77-7-7--55-55-------|
-|-5-5-5--55-5-5--33-3-3--11-1-1111-|-5-5-5--55-5-5--33-33--5v-r-|
     * *     * *     * *     * ****     * *     * *     *

 Both Gtrís
-|-------------------------------|------|
-|-------------------------------|------|
-|-------------------------------|------|
-|-7------77------55------33-333-|-5----|
-|-7-7-7--77-7-7--55-5-5--33-333-|-5-16-|
-|-5-5-5--55-5-5--33-3-3--11-111-|-3----|
     * *     * *     * *

Chorus 2
 Both Gtrís
-|-----------------x2-|-----------------x2-|
-|--------------------|--------------------|
-|--------------------|--------------------|
-|-7------7------7----|-3------3------3----|
-|-7-7777-7-7777-7-77-|-3-3333-3-3333-3-33-|
-|-5-5555-5-5555-5-55-|-1-1111-1-1111-1-11-|
     ****   ****   **     ****   ****   **

-|-----------------x2-|----------------------------------------|
-|--------------------|----------------------------------------|
-|-5------5------5----|----------------------------------------|
-|-5-5555-5-5555-5-55-|-2------2------2-----6------6------6----|
-|-3-3333-3-3333-3-33-|-2-2222-2-2222-2-22--6-6666-6-6666-6-66-|
-|---****---****---**-|-0-0000-0-0000-0-00--4-4444-4-4444-4-44-|
                          ****   ****   **    ****   ****   **
 Both Gtrís
-|-----------------x2-|-----------------x2-|
-|--------------------|--------------------|
-|--------------------|--------------------|
-|-7------7------7----|-3------3------3----|
-|-7-7777-7-7777-7-77-|-3-3333-3-3333-3-33-|
-|-5-5555-5-5555-5-55-|-1-1111-1-1111-1-11-|
     ****   ****   **     ****   ****   **

-|-----------------x2-|----------|
-|--------------------|----------|
-|-5------5------5----|----------|
-|-5-5555-5-5555-5-55-|-5----6---|
-|-3-3333-3-3333-3-33-|-5-8--6-8-|
-|---****---****---**-|-3----4---|





Break
 Gtr 1
-|---------------------------------------------------------------------------|
-|---------------------------------------------------------------------------|
-|---------------------------------------------------------------------------|
-|-777--------------------777-7-5----------------------------------------5-6-|
-|-777--------------------777-----7--6h7p6-5h6p5--3-------------5b-5b-3--5-6-|
-|-555--------------------555-----------------------3-r------------------3-4-|

 Gtr 2
-|---------------------------------------------------------------------------|
-|---------------------------------------------------------------------------|
-|----------------------------------------------------------3----------------|
-|-777-------5-7p5---5-7--777-----------------555-------3h5---5--555-----5-6-|
-|-777-5h6h7-------7------777-----------------555-3h4h5----------555-----5-6-|
-|-555--------------------555-----------------333----------------333-----3-4-|

 Gtr 1
-|----------------------|------x4-|-------------------------------------|
-|----------------------|---------|-----8p5-8p5-8p5-8p5-8p5-8p5-8p5-----|
-|----------5-7p5---5-7-|-7b8r7p5-|-7b9-----------------------------7p5-|
-|-77-5h6h7-------7-----|---------|-------------------------------------|
-|-77-------------------|---------|-------------------------------------|
-|-55-------------------|---------|-------------------------------------|

 Gtr 2
-|----------------------|--------------------x2-|
-|----------------------|-----------------------|
-|----------------------|-----------------------|
-|-77-------5-7p5---5-7-|-777-------5-7p5---5-7-|
-|-77-5h6h7-------7-----|-777-5h6h7-------7-----|
-|-55-------------------|-555-------------------|

 Gtr 1
-|---------------------|
-|---------------------|
-|-----------5h7-7vb-r-|
-|-----5h6h7-----------|
-|---------------------|
-----------------------|

 Gtr 2
-|----------------------|
-|----------------------|
-|---------------3vb----|
-|-555-------3h5-----5--|
-|-555-3h4h5------------|
-|-333------------------|

Break 2
 Gtr 1
-|--------------------------------------------------------|
-|-------------7b8r7--------------------------------------|
-|-------5-7b9----r7-7p5h7-r--5-r--5---5-5/7-5-r----------|
-|---5-7-----------------------------7------------6-r-5-r-|
-|-7------------------------------------------------------|
-|--------------------------------------------------------|







  Gtr 2
-|--------------------------------------|-----8--------|
-|--------------------------------------|-----9-16-----|
-|--------------------------------------|----10--------|
-|------------------3-------3-----3-----3-|------------|
-|--7-16--5-16--333-3-33333-3-333-3-333-3-|------------|
-|--5-----3-----111-1-11111-1-111-1-111-1-|-/8---------|
    *     *     ***   *****   ***   ***

Bridge 1 - x2
 Gtr 1
-|-------x4-|-------x4-|-------x4-|-------x4-|
-|----------|----------|----------|----------|
-|-----5----|----------|----------|----------|
-|-555-5-55-|-----5----|-----3----|-----3----|
-|-333-3-33-|-555-5-55-|-333-3-33-|-333-3-33-|
-|-***---**-|-333-3-33-|-111-1-11-|-111-1-11-|
              ***   **   ***   **   ***   **
 Gtr 2
-|-------x4-|-------x4-|-------x4-|------8----|
-|----------|----------|----------|------9-16-|
-|-----5----|----------|----------|-----10----|
-|-555-5-55-|-----5----|-----3----|-----------|
-|-333-3-33-|-555-5-55-|-333-3-33-|-----------|
-|-***---**-|-333-3-33-|-111-1-11-|-/8--------|
              ***   **   ***   **

Bridge 2
 Gtr 1
-|--------------------|----------------|
-|--------------------|----------------|
-|-7----7----5----4---|----------------|
-|---r----r----r----r-|-3-----5----6---|
-|-9----5----3----2---|-3-16--5-8--6-8-|
-|--------------------|-1-----3----4---|

 Gtr 2
-|--------------------|----------------|
-|--------------------|----------------|
-|--------------------|----------------|
-|-10---9----7----5---|-3-----5----6---|
-|---r----r----r----r-|-3-16--5-8--6-8-|
-|--8---7----5----3---|-1-----3----4---|

 Gtr 1
-|------------------------------------------------------|
-|------------------------------------------------------|
-|-----------------------------5------------------------|
-|-7-------------3-------------5-r------------2-----6-6-|
-|-7-r-----------3-r-----------3--------------2-16--6-6-|
-|-5-------------1----------------------------0-----4-4-|

 Gtr 2
-|----------------------1-------------------------------|
-|--------5-----------1---1------------5----------------|
-|------5---5-------2-------2--5-----5---5--------------|
-|-7--7-------7--3-------------5-r-5-------5--2-----6-6-|
-|-7-r-----------3-r-----------3--------------2-16--6-6-|
-|-5-------------1----------------------------0-----4-4-|





Chorus 2
 Both Gtrís
-|-----------------x2-|-----------------x2-|
-|--------------------|--------------------|
-|--------------------|--------------------|
-|-7------7------7----|-3------3------3----|
-|-7-7777-7-7777-7-77-|-3-3333-3-3333-3-33-|
-|-5-5555-5-5555-5-55-|-1-1111-1-1111-1-11-|
     ****   ****   **     ****   ****   **

-|-----------------x2-|----------|
-|--------------------|----------|
-|-5------5------5----|----------|
-|-5-5555-5-5555-5-55-|-5----6---|
-|-3-3333-3-3333-3-33-|-5-8--6-8-|
-|---****---****---**-|-3----4---|

Bridge 3
 Gtr 1
-|------------------------x2-|---------------------------------------|
-|---------------------------|---------------------------------------|
-|-101010-9----101010-999-77-|-101010-9----101010-999-1010--12---8---|
-|----------6----------------|----------6---------------------8----8-|
-|--8-8-8-7-----8-8-8-777-55-|--8-8-8-7-----8-8-8-777--8-8--10---6---|
-|---------------------------|---------------------------------------|

-|------------------------x2-|-------------------------------------------|
-|---------------------------|-------------------------------------------|
-|-101010-9----101010-999-77-|-101010-9----101010-999-1010--12---8-------|
-|----------6----------------|----------6---------------------8----6-----|
-|--8-8-8-7-----8-8-8-777-55-|--8-8-8-7-----8-8-8-777--8-8--10---6----66-|
-|---------------------------|----------------------------------------44-|
                                                                      **
 Gtr 2
-|----------------------------|--------------------------------|
-|----------------------------|--------------------------------|
-|-------------5--------------|-------------5------------------|
-|-7-----3-----5-16--5----6---|-7-----3-----5-16--5----6-------|
-|-7-16--3-16--3-----5-8--6-8-|-7-16--3-16--3-----5-8--6-6--66-|
-|-5-----1-----------3----4---|-5-----1-----------3----4----44-|
                                                            **
Outro 1
 Gtr 1
-|-------------------------------------------|
-|-------------------------------------------|
-|-------------------------------------------|
-|-7---------5----------3---------2----------|
-|-7-r----7--5-r----55--3-r----3--2-r----2-8-|
-|-5------5--3------33--1------1--0------0---|
          *         **         *         *
 Gtr 2
-|--------------------------------------------------------|
-|--------------------------------------------------------|
-|-999999999-7-101010101010101010--777777777-5--999999999-|
-|-777777777-7--7-7-7-7-7-7-7-7-7--555555555-5--555555555-|
-|--------------------------------------------------------|
-|--------------------------------------------------------|

-|------------------------------------------------|
-|------------------------------------55-33-11-00-|
-|-555555555-4--777777777--444444444--------------|
-|-333333333-3--333333333--222222222--------------|
-|------------------------------------------------|
-|------------------------------------------------|
 Gtr 1
-|------------------------------------------------|
-|------------------------------------------------|
-|------------------------------------------------|
-|-7-7-7----7-7-7---5-5-5---5-5-5---3-3-3---3-3-3-|
-|-7-7-7----7-7-7---5-5-5---5-5-5---3-3-3---3-3-3-|
-|-5-5-5----5-5-5---3-3-3---3-3-3---1-1-1---1-1-1-|

 Gtr 2
-|--------------------------------------------------------|
-|--------------------------------------------------------|
-|-999999999-7-101010101010101010--777777777-5--999999999-|
-|-777777777-7--7-7-7-7-7-7-7-7-7--555555555-5--555555555-|
-|--------------------------------------------------------|
-|--------------------------------------------------------|

-|------------------------|
-|------------------------|
-|-555555555-4--777777777-|
-|-333333333-3--333333333-|
-|------------------------|
-|------------------------|

Outro 2
 Gtr 1
-|-------x6-|--------------------|
-|----------|--------------------|
-|----------|-555-444------------|
-|-2------3-|----------77-66--77-|
-|-2-2222-3-|-----------------77-|
-|-0-0000-1-|-----------------55-|
     ****

 Gtr 2
-|-------x6-|-----------------|
-|----------|-55-33-11-00-----|
-|-4-4444-5-|-----------------|
-|----------|--------------77-|
-|----------|--------------77-|
-|----------|--------------55-|
Tap to rate this tab
 
# A B C D E F G H I J K L M N O P Q R S T U V W X Y Z